999
dxfrw 0.5.11
0
SECTION
2
HEADER
9
$ACADVER
1
AC1015
9
$HANDSEED
5
20000
9
$DWGCODEPAGE
3
ANSI_1250
9
$INSBASE
10
0
20
0
30
0
9
$EXTMIN
10
0
20
-210
30
0
9
$EXTMAX
10
297
20
0
30
0
9
$LIMMIN
10
0
20
0
9
$LIMMAX
10
420
20
297
9
$ORTHOMODE
70
0
9
$LTSCALE
40
1
9
$TEXTSTYLE
7
STANDARD
9
$CLAYER
8
DIMENSIONS
9
$DIMASZ
40
3.5
9
$DIMLFAC
40
1
9
$DIMSCALE
40
1
9
$DIMEXO
40
0
9
$DIMEXE
40
2
9
$DIMTXT
40
3.5
9
$DIMTSZ
40
0
9
$DIMAUNIT
70
0
9
$DIMADEC
70
2
9
$DIMLUNIT
70
2
9
$DIMSTYLE
2
Standard
9
$DIMGAP
40
1
9
$DIMTIH
70
0
9
$LUNITS
70
2
9
$LUPREC
70
2
9
$AUNITS
70
0
9
$AUPREC
70
2
9
$SPLINESEGS
70
8
9
$GRIDMODE
70
0
9
$SNAPSTYLE
70
0
9
$GRIDUNIT
10
0
20
0
9
$PINSBASE
10
0
20
210
30
0
9
$PLIMMIN
10
0
20
0
9
$PLIMMAX
10
297
20
210
9
$INSUNITS
70
4
9
$PSVPSCALE
40
1
0
ENDSEC
0
SECTION
2
CLASSES
0
ENDSEC
0
SECTION
2
TABLES
0
TABLE
2
VPORT
5
8
330
0
100
AcDbSymbolTable
70
1
0
VPORT
5
31
330
2
100
AcDbSymbolTableRecord
100
AcDbViewportTableRecord
2
*ACTIVE
70
0
10
0
20
0
11
1
21
1
12
150.609836066
22
7.14098360656
13
0
23
0
14
10
24
10
15
10
25
10
16
0
26
0
36
1
17
0
27
0
37
0
40
238.249180328
41
1.27384196185
42
50
43
0
44
0
50
0
51
0
71
0
72
100
73
1
74
3
75
0
76
0
77
0
78
0
281
0
65
1
110
0
120
0
130
0
111
1
121
0
131
0
112
0
122
1
132
0
79
0
146
0
0
ENDTAB
0
TABLE
2
LTYPE
5
5
330
0
100
AcDbSymbolTable
70
4
0
LTYPE
5
14
330
5
100
AcDbSymbolTableRecord
100
AcDbLinetypeTableRecord
2
ByBlock
70
0
3

72
65
73
0
40
0
0
LTYPE
5
15
330
5
100
AcDbSymbolTableRecord
100
AcDbLinetypeTableRecord
2
ByLayer
70
0
3

72
65
73
0
40
0
0
LTYPE
5
16
330
5
100
AcDbSymbolTableRecord
100
AcDbLinetypeTableRecord
2
Continuous
70
0
3
Solid line
72
65
73
0
40
0
0
LTYPE
5
32
330
5
100
AcDbSymbolTableRecord
100
AcDbLinetypeTableRecord
2
DOT
70
0
3
Dot . . . . . . . . . . . . . . . . . . . . . .
72
65
73
2
40
6.35
49
0
74
0
49
-6.35
74
0
0
LTYPE
5
33
330
5
100
AcDbSymbolTableRecord
100
AcDbLinetypeTableRecord
2
DOT2
70
0
3
Dot (.5x) .....................................
72
65
73
2
40
3.175
49
0
74
0
49
-3.175
74
0
0
LTYPE
5
34
330
5
100
AcDbSymbolTableRecord
100
AcDbLinetypeTableRecord
2
DOTX2
70
0
3
Dot (2x) .  .  .  .  .  .  .  .  .  .  .  .  .
72
65
73
2
40
12.7
49
0
74
0
49
-12.7
74
0
0
LTYPE
5
35
330
5
100
AcDbSymbolTableRecord
100
AcDbLinetypeTableRecord
2
DASHED
70
0
3
Dot . . . . . . . . . . . . . . . . . . . . . .
72
65
73
2
40
19.05
49
12.7
74
0
49
-6.35
74
0
0
LTYPE
5
36
330
5
100
AcDbSymbolTableRecord
100
AcDbLinetypeTableRecord
2
DASHED2
70
0
3
Dashed (.5x) _ _ _ _ _ _ _ _ _ _ _ _ _ _ _ _ _
72
65
73
2
40
9.525
49
6.35
74
0
49
-3.175
74
0
0
LTYPE
5
37
330
5
100
AcDbSymbolTableRecord
100
AcDbLinetypeTableRecord
2
DASHEDX2
70
0
3
Dashed (2x) ____  ____  ____  ____  ____  ___
72
65
73
2
40
38.1
49
25.4
74
0
49
-12.7
74
0
0
LTYPE
5
38
330
5
100
AcDbSymbolTableRecord
100
AcDbLinetypeTableRecord
2
DASHDOT
70
0
3
Dash dot __ . __ . __ . __ . __ . __ . __ . __
72
65
73
4
40
25.4
49
12.7
74
0
49
-6.35
74
0
49
0
74
0
49
-6.35
74
0
0
LTYPE
5
39
330
5
100
AcDbSymbolTableRecord
100
AcDbLinetypeTableRecord
2
DASHDOT2
70
0
3
Dash dot (.5x) _._._._._._._._._._._._._._._.
72
65
73
4
40
12.7
49
6.35
74
0
49
-3.175
74
0
49
0
74
0
49
-3.175
74
0
0
LTYPE
5
3A
330
5
100
AcDbSymbolTableRecord
100
AcDbLinetypeTableRecord
2
DASHDOTX2
70
0
3
Dash dot (2x) ____  .  ____  .  ____  .  ___
72
65
73
4
40
50.8
49
25.4
74
0
49
-12.7
74
0
49
0
74
0
49
-12.7
74
0
0
LTYPE
5
3B
330
5
100
AcDbSymbolTableRecord
100
AcDbLinetypeTableRecord
2
DIVIDE
70
0
3
Divide ____ . . ____ . . ____ . . ____ . . ____
72
65
73
6
40
31.75
49
12.7
74
0
49
-6.35
74
0
49
0
74
0
49
-6.35
74
0
49
0
74
0
49
-6.35
74
0
0
LTYPE
5
3C
330
5
100
AcDbSymbolTableRecord
100
AcDbLinetypeTableRecord
2
DIVIDE2
70
0
3
Divide (.5x) __..__..__..__..__..__..__..__.._
72
65
73
6
40
15.875
49
6.35
74
0
49
-3.175
74
0
49
0
74
0
49
-3.175
74
0
49
0
74
0
49
-3.175
74
0
0
LTYPE
5
3D
330
5
100
AcDbSymbolTableRecord
100
AcDbLinetypeTableRecord
2
DIVIDEX2
70
0
3
Divide (2x) ________  .  .  ________  .  .  _
72
65
73
6
40
63.5
49
25.4
74
0
49
-12.7
74
0
49
0
74
0
49
-12.7
74
0
49
0
74
0
49
-12.7
74
0
0
LTYPE
5
3E
330
5
100
AcDbSymbolTableRecord
100
AcDbLinetypeTableRecord
2
BORDER
70
0
3
Border __ __ . __ __ . __ __ . __ __ . __ __ .
72
65
73
6
40
44.45
49
12.7
74
0
49
-6.35
74
0
49
12.7
74
0
49
-6.35
74
0
49
0
74
0
49
-6.35
74
0
0
LTYPE
5
3F
330
5
100
AcDbSymbolTableRecord
100
AcDbLinetypeTableRecord
2
BORDER2
70
0
3
Border (.5x) __.__.__.__.__.__.__.__.__.__.__.
72
65
73
6
40
22.225
49
6.35
74
0
49
-3.175
74
0
49
6.35
74
0
49
-3.175
74
0
49
0
74
0
49
-3.175
74
0
0
LTYPE
5
40
330
5
100
AcDbSymbolTableRecord
100
AcDbLinetypeTableRecord
2
BORDERX2
70
0
3
Border (2x) ____  ____  .  ____  ____  .  ___
72
65
73
6
40
88.9
49
25.4
74
0
49
-12.7
74
0
49
25.4
74
0
49
-12.7
74
0
49
0
74
0
49
-12.7
74
0
0
LTYPE
5
41
330
5
100
AcDbSymbolTableRecord
100
AcDbLinetypeTableRecord
2
CENTER
70
0
3
Center ____ _ ____ _ ____ _ ____ _ ____ _ ____
72
65
73
4
40
50.8
49
31.75
74
0
49
-6.35
74
0
49
6.35
74
0
49
-6.35
74
0
0
LTYPE
5
42
330
5
100
AcDbSymbolTableRecord
100
AcDbLinetypeTableRecord
2
CENTER2
70
0
3
Center (.5x) ___ _ ___ _ ___ _ ___ _ ___ _ ___
72
65
73
4
40
28.575
49
19.05
74
0
49
-3.175
74
0
49
3.175
74
0
49
-3.175
74
0
0
LTYPE
5
43
330
5
100
AcDbSymbolTableRecord
100
AcDbLinetypeTableRecord
2
CENTERX2
70
0
3
Center (2x) ________  __  ________  __  _____
72
65
73
4
40
101.6
49
63.5
74
0
49
-12.7
74
0
49
12.7
74
0
49
-12.7
74
0
0
ENDTAB
0
TABLE
2
LAYER
5
2
330
0
100
AcDbSymbolTable
70
1
0
LAYER
5
10
330
2
100
AcDbSymbolTableRecord
100
AcDbLayerTableRecord
2
0
70
0
62
7
6
CONTINUOUS
370
35
390
F
0
LAYER
5
44
330
2
100
AcDbSymbolTableRecord
100
AcDbLayerTableRecord
2
DIMENSIONS
70
0
62
7
6
CONTINUOUS
370
18
390
F
0
LAYER
5
45
330
2
100
AcDbSymbolTableRecord
100
AcDbLayerTableRecord
2
LOGO
70
0
62
7
6
CONTINUOUS
370
35
390
F
0
LAYER
5
46
330
2
100
AcDbSymbolTableRecord
100
AcDbLayerTableRecord
2
PAPERSIZE
70
0
62
136
6
CONTINUOUS
370
0
390
F
0
ENDTAB
0
TABLE
2
STYLE
5
3
330
0
100
AcDbSymbolTable
70
3
0
STYLE
5
47
330
2
100
AcDbSymbolTableRecord
100
AcDbTextStyleTableRecord
2
Standard
70
0
40
0
41
1
50
0
71
0
42
1
3
txt
4

0
ENDTAB
0
TABLE
2
VIEW
5
6
330
0
100
AcDbSymbolTable
70
0
0
ENDTAB
0
TABLE
2
UCS
5
7
330
0
100
AcDbSymbolTable
70
0
0
ENDTAB
0
TABLE
2
APPID
5
9
330
0
100
AcDbSymbolTable
70
1
0
APPID
5
12
330
9
100
AcDbSymbolTableRecord
100
AcDbRegAppTableRecord
2
ACAD
70
0
0
ENDTAB
0
TABLE
2
DIMSTYLE
5
A
330
0
100
AcDbSymbolTable
70
1
100
AcDbDimStyleTable
71
1
0
DIMSTYLE
105
48
330
A
100
AcDbSymbolTableRecord
100
AcDbDimStyleTableRecord
2
Standard
70
0
40
1
41
3.5
42
0
43
0.38
44
2
45
0
46
0
47
0
48
0
140
3.5
141
0.09
142
0
143
25.4
144
1
145
0
146
1
147
1
148
0
71
0
72
0
73
0
74
1
75
0
76
0
77
0
78
0
79
0
170
0
171
2
172
0
173
0
174
0
175
0
176
0
177
0
178
0
179
0
271
4
272
4
273
2
274
2
275
0
276
0
277
2
278
46
279
0
280
0
281
0
282
0
283
1
284
0
285
0
286
0
288
0
289
3
340
Standard
341

371
-2
372
-2
0
ENDTAB
0
TABLE
2
BLOCK_RECORD
5
1
330
0
100
AcDbSymbolTable
70
2
0
BLOCK_RECORD
5
1F
330
1
100
AcDbSymbolTableRecord
100
AcDbBlockTableRecord
2
*Model_Space
0
BLOCK_RECORD
5
1E
330
1
100
AcDbSymbolTableRecord
100
AcDbBlockTableRecord
2
*Paper_Space
0
ENDTAB
0
ENDSEC
0
SECTION
2
BLOCKS
0
BLOCK
5
20
330
1F
100
AcDbEntity
8
0
100
AcDbBlockBegin
2
*Model_Space
70
0
10
0
20
0
30
0
3
*Model_Space
1

0
ENDBLK
5
21
330
1F
100
AcDbEntity
8
0
100
AcDbBlockEnd
0
BLOCK
5
1C
330
1B
100
AcDbEntity
8
0
100
AcDbBlockBegin
2
*Paper_Space
70
0
10
0
20
0
30
0
3
*Paper_Space
1

0
ENDBLK
5
1D
330
1F
100
AcDbEntity
8
0
100
AcDbBlockEnd
0
BLOCK
8
0
2
Ortho
70
0
10
0
20
0
3
Ortho
1

0
SECTION
2
ENTITIES
0
SPLINE
70
0
71
1
72
17
73
15
74
0
40
0
40
0
40
0.1122
40
0.224399
40
0.336599
40
0.448799
40
0.560999
40
0.673198
40
0.785398
40
0.897598
40
1.0098
40
1.122
40
1.2342
40
1.3464
40
1.4586
40
1.5708
40
1.5708
10
0
20
2.22045e-16
30
0
10
0
20
-0.00628779
30
0
10
0
20
-0.0250721
30
0
10
0
20
-0.0561167
30
0
10
0
20
-0.0990311
30
0
10
0
20
-0.153276
30
0
10
0
20
-0.218169
30
0
10
0
20
-0.292893
30
0
10
0
20
-0.37651
30
0
10
0
20
-0.467968
30
0
10
0
20
-0.566116
30
0
10
0
20
-0.669721
30
0
10
0
20
-0.777479
30
0
10
0
20
-0.888036
30
0
10
0
20
-1
30
0
0
LINE
8
0
6
BYBLOCK
62
0
10
0
20
-1
30
0
11
0
21
-24
31
0
0
SECTION
2
ENTITIES
0
SPLINE
70
0
71
1
72
17
73
15
74
0
40
1.5708
40
1.5708
40
1.683
40
1.7952
40
1.9074
40
2.0196
40
2.1318
40
2.24399
40
2.35619
40
2.46839
40
2.58059
40
2.69279
40
2.80499
40
2.91719
40
3.02939
40
3.14159
40
3.14159
10
0
20
-24
30
0
10
0
20
-24.112
30
0
10
0
20
-24.2225
30
0
10
0
20
-24.3303
30
0
10
0
20
-24.4339
30
0
10
0
20
-24.532
30
0
10
0
20
-24.6235
30
0
10
0
20
-24.7071
30
0
10
0
20
-24.7818
30
0
10
0
20
-24.8467
30
0
10
0
20
-24.901
30
0
10
0
20
-24.9439
30
0
10
0
20
-24.9749
30
0
10
0
20
-24.9937
30
0
10
0
20
-25
30
0
0
SECTION
2
ENTITIES
0
SPLINE
70
0
71
1
72
17
73
15
74
0
40
0
40
0
40
0.1122
40
0.224399
40
0.336599
40
0.448799
40
0.560999
40
0.673198
40
0.785398
40
0.897598
40
1.0098
40
1.122
40
1.2342
40
1.3464
40
1.4586
40
1.5708
40
1.5708
10
5
20
2.22045e-16
30
0
10
5
20
-0.00628779
30
0
10
5
20
-0.0250721
30
0
10
5
20
-0.0561167
30
0
10
5
20
-0.0990311
30
0
10
5
20
-0.153276
30
0
10
5
20
-0.218169
30
0
10
5
20
-0.292893
30
0
10
5
20
-0.37651
30
0
10
5
20
-0.467968
30
0
10
5
20
-0.566116
30
0
10
5
20
-0.669721
30
0
10
5
20
-0.777479
30
0
10
5
20
-0.888036
30
0
10
5
20
-1
30
0
0
LINE
8
0
6
BYBLOCK
62
0
10
5
20
-1
30
0
11
5
21
-24
31
0
0
SECTION
2
ENTITIES
0
SPLINE
70
0
71
1
72
17
73
15
74
0
40
1.5708
40
1.5708
40
1.683
40
1.7952
40
1.9074
40
2.0196
40
2.1318
40
2.24399
40
2.35619
40
2.46839
40
2.58059
40
2.69279
40
2.80499
40
2.91719
40
3.02939
40
3.14159
40
3.14159
10
5
20
-24
30
0
10
5
20
-24.112
30
0
10
5
20
-24.2225
30
0
10
5
20
-24.3303
30
0
10
5
20
-24.4339
30
0
10
5
20
-24.532
30
0
10
5
20
-24.6235
30
0
10
5
20
-24.7071
30
0
10
5
20
-24.7818
30
0
10
5
20
-24.8467
30
0
10
5
20
-24.901
30
0
10
5
20
-24.9439
30
0
10
5
20
-24.9749
30
0
10
5
20
-24.9937
30
0
10
5
20
-25
30
0
0
LINE
8
0
6
BYBLOCK
62
0
10
0
20
2.22045e-16
30
0
11
5
21
2.22045e-16
31
0
0
LINE
8
0
6
BYBLOCK
62
0
10
0
20
-25
30
0
11
5
21
-25
31
0
0
ENDBLK
8
0
0
BLOCK
8
0
2
Ortho001
70
0
10
0
20
0
3
Ortho001
1

0
LINE
8
0
6
BYBLOCK
62
0
10
0.207107
20
0.358719
30
0
11
-3.32843
21
2.39996
31
0
0
LINE
8
0
6
BYBLOCK
62
0
10
22.481
20
16.8928
30
0
11
25.663
21
15.0557
31
0
0
LINE
8
0
6
BYBLOCK
62
0
10
-3.32843
20
13.4227
30
0
11
0.207107
21
11.3814
31
0
0
LINE
8
0
6
BYBLOCK
62
0
10
49.2904
20
48.6311
30
0
11
45.7548
21
50.6723
31
0
0
LINE
8
0
6
BYBLOCK
62
0
10
0.707107
20
0.408248
30
0
11
16.2635
21
9.38971
31
0
0
LINE
8
0
6
BYBLOCK
62
0
10
-2.82843
20
2.44949
30
0
11
11.3844
21
10.6553
31
0
0
LINE
8
0
6
BYBLOCK
62
0
10
13.0815
20
11.2268
30
0
11
11.738
21
10.4512
31
0
0
LINE
8
0
6
BYBLOCK
62
0
10
11.3844
20
10.6553
30
0
11
11.738
21
10.4512
31
0
0
ELLIPSE
8
0
6
BYBLOCK
62
0
10
0.707107
20
1.22474
30
0
11
-0.5
21
-0.866025
31
0
40
0.57735
41
6.28319
42
5.49779
0
ELLIPSE
8
0
6
BYBLOCK
62
0
10
16.2635
20
10.2062
30
0
11
0.5
21
0.866025
31
0
40
0.57735
41
3.92699
42
5.49779
0
LINE
8
0
6
BYBLOCK
62
0
10
16.9706
20
18.7794
30
0
11
16.9706
21
10.6145
31
0
0
ELLIPSE
8
0
6
BYBLOCK
62
0
10
21.2132
20
21.2289
30
0
11
3
21
5.19615
31
0
40
0.57735
41
0.55899
42
2.35619
0
ELLIPSE
8
0
6
BYBLOCK
62
0
10
26.163
20
15.9217
30
0
11
0.5
21
0.866025
31
0
40
0.57735
41
3.14159
42
3.92699
0
LINE
8
0
6
BYBLOCK
62
0
10
26.163
20
15.1052
30
0
11
48.7904
21
28.1691
31
0
0
ELLIPSE
8
0
6
BYBLOCK
62
0
10
0.707107
20
12.2474
30
0
11
0.5
21
0.866025
31
0
40
0.57735
41
3.14159
42
3.92699
0
ELLIPSE
8
0
6
BYBLOCK
62
0
10
48.7904
20
28.9856
30
0
11
0.5
21
0.866025
31
0
40
0.57735
41
3.92699
42
5.49779
0
LINE
8
0
6
BYBLOCK
62
0
10
49.4975
20
29.3939
30
0
11
49.4975
21
48.1733
31
0
0
ELLIPSE
8
0
6
BYBLOCK
62
0
10
48.7904
20
47.765
30
0
11
0.5
21
0.866025
31
0
40
0.57735
41
5.49779
42
6.28319
0
ELLIPSE
8
0
6
BYBLOCK
62
0
10
-2.82843
20
3.26599
30
0
11
-0.5
21
-0.866025
31
0
40
0.57735
41
6.28319
42
5.49779
0
ELLIPSE
8
0
6
BYBLOCK
62
0
10
-2.82843
20
3.26599
30
0
11
-0.5
21
-0.866025
31
0
40
0.57735
41
0.785398
42
0
0
ELLIPSE
8
0
6
BYBLOCK
62
0
10
13.0815
20
12.0433
30
0
11
0.5
21
0.866025
31
0
40
0.57735
41
3.92699
42
5.49779
0
LINE
8
0
6
BYBLOCK
62
0
10
11.3844
20
10.6553
30
0
11
11.3844
21
19.6367
31
0
0
LINE
8
0
6
BYBLOCK
62
0
10
-3.53553
20
8.16497
30
0
11
-3.53553
21
2.85774
31
0
0
ELLIPSE
8
0
6
BYBLOCK
62
0
10
17.6777
20
23.2702
30
0
11
4.45
21
7.70763
31
0
40
0.57735
41
5.49779
42
6.28319
0
ELLIPSE
8
0
6
BYBLOCK
62
0
10
17.6777
20
23.2702
30
0
11
4.45
21
7.70763
31
0
40
0.57735
41
1.11022e-16
42
2.35619
0
ELLIPSE
8
0
6
BYBLOCK
62
0
10
-2.82843
20
8.57321
30
0
11
-0.5
21
-0.866025
31
0
40
0.57735
41
2.35619
42
0.785398
0
LINE
8
0
6
BYBLOCK
62
0
10
23.9709
20
17.9221
30
0
11
23.9709
21
26.9036
31
0
0
LINE
8
0
6
BYBLOCK
62
0
10
-2.82843
20
9.38971
30
0
11
2.82843
21
12.6557
31
0
0
LINE
8
0
6
BYBLOCK
62
0
10
23.9709
20
17.9221
30
0
11
45.2548
21
30.2104
31
0
0
ELLIPSE
8
0
6
BYBLOCK
62
0
10
2.82843
20
14.6969
30
0
11
1.25
21
2.16506
31
0
40
0.57735
41
3.92699
42
6.28319
0
ELLIPSE
8
0
6
BYBLOCK
62
0
10
2.82843
20
14.6969
30
0
11
1.25
21
2.16506
31
0
40
0.57735
41
0
42
0.785398
0
ELLIPSE
8
0
6
BYBLOCK
62
0
10
45.2548
20
31.0269
30
0
11
0.5
21
0.866025
31
0
40
0.57735
41
3.92699
42
5.49779
0
LINE
8
0
6
BYBLOCK
62
0
10
-2.82843
20
13.4722
30
0
11
2.82843
21
16.7382
31
0
0
LINE
8
0
6
BYBLOCK
62
0
10
45.9619
20
31.4351
30
0
11
45.9619
21
50.2145
31
0
0
ELLIPSE
8
0
6
BYBLOCK
62
0
10
-2.82843
20
14.2887
30
0
11
0.5
21
0.866025
31
0
40
0.57735
41
2.35619
42
3.14159
0
ELLIPSE
8
0
6
BYBLOCK
62
0
10
-2.82843
20
14.2887
30
0
11
0.5
21
0.866025
31
0
40
0.57735
41
3.14159
42
3.92699
0
ELLIPSE
8
0
6
BYBLOCK
62
0
10
45.2548
20
49.8063
30
0
11
0.5
21
0.866025
31
0
40
0.57735
41
5.49779
42
6.28319
0
ELLIPSE
8
0
6
BYBLOCK
62
0
10
45.2548
20
49.8063
30
0
11
0.5
21
0.866025
31
0
40
0.57735
41
0
42
0.785398
0
LINE
8
0
6
BYBLOCK
62
0
10
-3.53553
20
21.6372
30
0
11
-3.53553
21
13.8804
31
0
0
LINE
8
0
6
BYBLOCK
62
0
10
45.2548
20
50.6228
30
0
11
-2.82843
21
22.8619
31
0
0
ELLIPSE
8
0
6
BYBLOCK
62
0
10
-2.82843
20
22.0454
30
0
11
0.5
21
0.866025
31
0
40
0.57735
41
0.785398
42
2.35619
0
LINE
8
0
6
BYBLOCK
62
0
10
33.234
20
34.2929
30
0
11
38.8909
21
37.5588
31
0
0
ELLIPSE
8
0
6
BYBLOCK
62
0
10
33.234
20
32.2516
30
0
11
1.25
21
2.16506
31
0
40
0.57735
41
0.785398
42
3.14159
0
ELLIPSE
8
0
6
BYBLOCK
62
0
10
33.234
20
32.2516
30
0
11
1.25
21
2.16506
31
0
40
0.57735
41
3.14159
42
3.92699
0
ELLIPSE
8
0
6
BYBLOCK
62
0
10
38.8909
20
35.5176
30
0
11
1.25
21
2.16506
31
0
40
0.57735
41
3.92699
42
6.28319
0
ELLIPSE
8
0
6
BYBLOCK
62
0
10
38.8909
20
35.5176
30
0
11
1.25
21
2.16506
31
0
40
0.57735
41
0
42
0.785398
0
LINE
8
0
6
BYBLOCK
62
0
10
33.234
20
30.2104
30
0
11
38.8909
21
33.4764
31
0
0
ELLIPSE
8
0
6
BYBLOCK
62
0
10
43.5578
20
33.7213
30
0
11
1.2
21
2.07846
31
0
40
0.57735
41
2.35619
42
3.14159
0
ELLIPSE
8
0
6
BYBLOCK
62
0
10
43.5578
20
33.7213
30
0
11
1.2
21
2.07846
31
0
40
0.57735
41
3.14159
42
5.49779
0
LINE
8
0
6
BYBLOCK
62
0
10
41.8607
20
32.7415
30
0
11
41.8607
21
44.1725
31
0
0
ELLIPSE
8
0
6
BYBLOCK
62
0
10
43.5578
20
45.1523
30
0
11
1.2
21
2.07846
31
0
40
0.57735
41
5.49779
42
6.28319
0
ELLIPSE
8
0
6
BYBLOCK
62
0
10
43.5578
20
45.1523
30
0
11
1.2
21
2.07846
31
0
40
0.57735
41
1.11022e-16
42
2.35619
0
LINE
8
0
6
BYBLOCK
62
0
10
45.2548
20
34.7011
30
0
11
45.2548
21
46.1321
31
0
0
ELLIPSE
8
0
6
BYBLOCK
62
0
10
27.7893
20
24.6174
30
0
11
1.7
21
2.94449
31
0
40
0.57735
41
2.35619
42
3.14159
0
ELLIPSE
8
0
6
BYBLOCK
62
0
10
27.7893
20
24.6174
30
0
11
1.7
21
2.94449
31
0
40
0.57735
41
3.14159
42
5.49779
0
LINE
8
0
6
BYBLOCK
62
0
10
25.3851
20
23.2293
30
0
11
25.3851
21
34.6603
31
0
0
ELLIPSE
8
0
6
BYBLOCK
62
0
10
27.7893
20
36.0483
30
0
11
1.7
21
2.94449
31
0
40
0.57735
41
5.49779
42
6.28319
0
ELLIPSE
8
0
6
BYBLOCK
62
0
10
27.7893
20
36.0483
30
0
11
1.7
21
2.94449
31
0
40
0.57735
41
1.11022e-16
42
2.35619
0
LINE
8
0
6
BYBLOCK
62
0
10
30.1935
20
26.0054
30
0
11
30.1935
21
37.4364
31
0
0
LINE
8
0
6
BYBLOCK
62
0
10
9.97021
20
14.3295
30
0
11
9.97021
21
25.7605
31
0
0
ELLIPSE
8
0
6
BYBLOCK
62
0
10
7.9196
20
13.1456
30
0
11
1.45
21
2.51147
31
0
40
0.57735
41
2.35619
42
3.14159
0
ELLIPSE
8
0
6
BYBLOCK
62
0
10
7.9196
20
13.1456
30
0
11
1.45
21
2.51147
31
0
40
0.57735
41
3.14159
42
5.49779
0
LINE
8
0
6
BYBLOCK
62
0
10
5.86899
20
11.9617
30
0
11
5.86899
21
23.3926
31
0
0
ELLIPSE
8
0
6
BYBLOCK
62
0
10
7.9196
20
24.5765
30
0
11
1.45
21
2.51147
31
0
40
0.57735
41
5.49779
42
6.28319
0
ELLIPSE
8
0
6
BYBLOCK
62
0
10
7.9196
20
24.5765
30
0
11
1.45
21
2.51147
31
0
40
0.57735
41
1.11022e-16
42
2.35619
0
LINE
8
0
6
BYBLOCK
62
0
10
11.738
20
10.4512
30
0
11
11.738
21
19.4326
31
0
0
LINE
8
0
6
BYBLOCK
62
0
10
13.7886
20
12.4516
30
0
11
13.7886
21
20.6165
31
0
0
ELLIPSE
8
0
6
BYBLOCK
62
0
10
18.0312
20
23.066
30
0
11
4.45
21
7.70763
31
0
40
0.57735
41
0.0397356
42
2.35619
0
ELLIPSE
8
0
6
BYBLOCK
62
0
10
18.0312
20
23.066
30
0
11
3
21
5.19615
31
0
40
0.57735
41
5.49779
42
6.28319
0
ELLIPSE
8
0
6
BYBLOCK
62
0
10
18.0312
20
23.066
30
0
11
3
21
5.19615
31
0
40
0.57735
41
1.11022e-16
42
2.35619
0
LINE
8
0
6
BYBLOCK
62
0
10
22.2739
20
17.3506
30
0
11
22.2739
21
25.5155
31
0
0
LINE
8
0
6
BYBLOCK
62
0
10
24.3245
20
17.718
30
0
11
22.981
21
16.9423
31
0
0
ELLIPSE
8
0
6
BYBLOCK
62
0
10
22.981
20
17.7588
30
0
11
0.5
21
0.866025
31
0
40
0.57735
41
2.35619
42
3.14159
0
ELLIPSE
8
0
6
BYBLOCK
62
0
10
22.981
20
17.7588
30
0
11
0.5
21
0.866025
31
0
40
0.57735
41
3.14159
42
3.92699
0
LINE
8
0
6
BYBLOCK
62
0
10
23.9709
20
17.9221
30
0
11
24.3245
21
17.718
31
0
0
LINE
8
0
6
BYBLOCK
62
0
10
43.982
20
32.0689
30
0
11
43.982
21
42.9477
31
0
0
ELLIPSE
8
0
6
BYBLOCK
62
0
10
45.6791
20
43.9275
30
0
11
1.2
21
2.07846
31
0
40
0.57735
41
1.03808
42
2.35619
0
ELLIPSE
8
0
6
BYBLOCK
62
0
10
29.9106
20
23.3926
30
0
11
1.7
21
2.94449
31
0
40
0.57735
41
2.35619
42
2.46785
0
LINE
8
0
6
BYBLOCK
62
0
10
27.5065
20
22.0046
30
0
11
27.5065
21
33.4355
31
0
0
ELLIPSE
8
0
6
BYBLOCK
62
0
10
29.9106
20
34.8236
30
0
11
1.7
21
2.94449
31
0
40
0.57735
41
0.673746
42
2.35619
0
LINE
8
0
6
BYBLOCK
62
0
10
32.3148
20
29.9773
30
0
11
32.3148
21
33.4645
31
0
0
LINE
8
0
6
BYBLOCK
62
0
10
7.99031
20
10.82
30
0
11
7.99031
21
22.1679
31
0
0
ELLIPSE
8
0
6
BYBLOCK
62
0
10
10.0409
20
23.3518
30
0
11
1.45
21
2.51147
31
0
40
0.57735
41
0.819888
42
2.35619
0
ENDBLK
8
0
0
BLOCK
8
0
2
Ortho002
70
0
10
0
20
0
3
Ortho002
1

0
LINE
8
0
6
BYBLOCK
62
0
10
1
20
0
30
0
11
21.1
21
0
31
0
0
LINE
8
0
6
BYBLOCK
62
0
10
23
20
0
30
0
11
21.1
21
0
31
0
0
ARC
8
0
6
BYBLOCK
62
0
10
1
20
1
30
0
40
1
50
180
51
-90
0
ARC
8
0
6
BYBLOCK
62
0
10
23
20
1
30
0
40
1
50
-90
51
-1.27222e-14
0
LINE
8
0
6
BYBLOCK
62
0
10
21.1
20
9.18045e-13
30
0
11
21.1
21
11
31
0
0
LINE
8
0
6
BYBLOCK
62
0
10
0
20
7.5
30
0
11
0
21
1
31
0
0
ARC
8
0
6
BYBLOCK
62
0
10
30
20
11
30
0
40
8.9
50
-5.90082e-12
51
-180
0
ARC
8
0
6
BYBLOCK
62
0
10
1
20
7.5
30
0
40
1
50
90
51
180
0
LINE
8
0
6
BYBLOCK
62
0
10
38.9
20
9.2268e-13
30
0
11
38.9
21
11
31
0
0
LINE
8
0
6
BYBLOCK
62
0
10
1
20
8.5
30
0
11
9
21
8.5
31
0
0
LINE
8
0
6
BYBLOCK
62
0
10
38.9
20
0
30
0
11
69
21
0
31
0
0
ARC
8
0
6
BYBLOCK
62
0
10
9
20
11
30
0
40
2.5
50
-90
51
90
0
ARC
8
0
6
BYBLOCK
62
0
10
69
20
1
30
0
40
1
50
-90
51
2.03555e-13
0
LINE
8
0
6
BYBLOCK
62
0
10
1
20
13.5
30
0
11
9
21
13.5
31
0
0
LINE
8
0
6
BYBLOCK
62
0
10
70
20
1
30
0
11
70
21
24
31
0
0
ARC
8
0
6
BYBLOCK
62
0
10
1
20
14.5
30
0
40
1
50
-180
51
-90
0
ARC
8
0
6
BYBLOCK
62
0
10
69
20
24
30
0
40
1
50
2.03555e-13
51
90
0
LINE
8
0
6
BYBLOCK
62
0
10
0
20
24
30
0
11
0
21
14.5
31
0
0
LINE
8
0
6
BYBLOCK
62
0
10
69
20
25
30
0
11
1
21
25
31
0
0
ARC
8
0
6
BYBLOCK
62
0
10
1
20
24
30
0
40
1
50
90
51
180
0
LINE
8
0
6
BYBLOCK
62
0
10
52
20
13.5
30
0
11
60
21
13.5
31
0
0
ARC
8
0
6
BYBLOCK
62
0
10
52
20
11
30
0
40
2.5
50
90
51
-90
0
ARC
8
0
6
BYBLOCK
62
0
10
60
20
11
30
0
40
2.5
50
-90
51
90
0
LINE
8
0
6
BYBLOCK
62
0
10
52
20
8.5
30
0
11
60
21
8.5
31
0
0
ARC
8
0
6
BYBLOCK
62
0
10
66.6
20
5.5
30
0
40
2.4
50
180
51
5.93704e-12
0
LINE
8
0
6
BYBLOCK
62
0
10
64.2
20
5.5
30
0
11
64.2
21
19.5
31
0
0
ARC
8
0
6
BYBLOCK
62
0
10
66.6
20
19.5
30
0
40
2.4
50
-5.93704e-12
51
-180
0
LINE
8
0
6
BYBLOCK
62
0
10
69
20
5.5
30
0
11
69
21
19.5
31
0
0
ARC
8
0
6
BYBLOCK
62
0
10
44.3
20
5.5
30
0
40
3.4
50
180
51
5.94202e-12
0
LINE
8
0
6
BYBLOCK
62
0
10
40.9
20
5.5
30
0
11
40.9
21
19.5
31
0
0
ARC
8
0
6
BYBLOCK
62
0
10
44.3
20
19.5
30
0
40
3.4
50
-5.92706e-12
51
-180
0
LINE
8
0
6
BYBLOCK
62
0
10
47.7
20
5.5
30
0
11
47.7
21
19.5
31
0
0
LINE
8
0
6
BYBLOCK
62
0
10
19.1
20
5.5
30
0
11
19.1
21
19.5
31
0
0
ARC
8
0
6
BYBLOCK
62
0
10
16.2
20
5.5
30
0
40
2.9
50
180
51
5.94873e-12
0
LINE
8
0
6
BYBLOCK
62
0
10
13.3
20
5.5
30
0
11
13.3
21
19.5
31
0
0
ARC
8
0
6
BYBLOCK
62
0
10
16.2
20
19.5
30
0
40
2.9
50
-5.89609e-12
51
-180
0
LINE
8
0
6
BYBLOCK
62
0
10
24
20
1
30
0
11
24
21
11
31
0
0
ARC
8
0
6
BYBLOCK
62
0
10
30
20
11
30
0
40
6
50
0
51
-180
0
LINE
8
0
6
BYBLOCK
62
0
10
36
20
1
30
0
11
36
21
11
31
0
0
LINE
8
0
6
BYBLOCK
62
0
10
38.9
20
0
30
0
11
37
21
0
31
0
0
ARC
8
0
6
BYBLOCK
62
0
10
37
20
1
30
0
40
1
50
-180
51
-90
0
ARC
8
0
6
BYBLOCK
62
0
10
66.6
20
5.5
30
0
40
2.4
50
180
51
5.93704e-12
0
ARC
8
0
6
BYBLOCK
62
0
10
66.6
20
19.5
30
0
40
2.4
50
-5.93704e-12
51
-180
0
ENDBLK
8
0
0
BLOCK
8
0
2
Ortho004
70
0
10
0
20
0
3
Ortho004
1

0
LINE
8
0
6
BYBLOCK
62
0
10
0
20
1
30
0
11
0
21
23
31
0
0
LINE
8
0
6
BYBLOCK
62
0
10
-5
20
1
30
0
11
-5
21
21.1
31
0
0
LINE
8
0
6
BYBLOCK
62
0
10
-4.5
20
23
30
0
11
-4.5
21
21.1
31
0
0
LINE
8
0
6
BYBLOCK
62
0
10
-5
20
21.1
30
0
11
-4.5
21
21.1
31
0
0
SECTION
2
ENTITIES
0
SPLINE
70
0
71
1
72
17
73
15
74
0
40
0
40
0
40
0.1122
40
0.224399
40
0.336599
40
0.448799
40
0.560999
40
0.673198
40
0.785398
40
0.897598
40
1.0098
40
1.122
40
1.2342
40
1.3464
40
1.4586
40
1.5708
40
1.5708
10
0
20
1
30
0
10
0
20
0.888036
30
0
10
0
20
0.777479
30
0
10
0
20
0.669721
30
0
10
0
20
0.566116
30
0
10
0
20
0.467968
30
0
10
0
20
0.37651
30
0
10
0
20
0.292893
30
0
10
0
20
0.218169
30
0
10
0
20
0.153276
30
0
10
0
20
0.0990311
30
0
10
0
20
0.0561167
30
0
10
0
20
0.0250721
30
0
10
0
20
0.00628779
30
0
10
0
20
-2.22045e-16
30
0
0
SECTION
2
ENTITIES
0
SPLINE
70
0
71
1
72
17
73
15
74
0
40
3.14159
40
3.14159
40
3.25379
40
3.36599
40
3.47819
40
3.59039
40
3.70259
40
3.81479
40
3.92699
40
4.03919
40
4.15139
40
4.26359
40
4.37579
40
4.48799
40
4.60019
40
4.71239
40
4.71239
10
0
20
23
30
0
10
0
20
23.112
30
0
10
0
20
23.2225
30
0
10
0
20
23.3303
30
0
10
0
20
23.4339
30
0
10
0
20
23.532
30
0
10
0
20
23.6235
30
0
10
0
20
23.7071
30
0
10
0
20
23.7818
30
0
10
0
20
23.8467
30
0
10
0
20
23.901
30
0
10
0
20
23.9439
30
0
10
0
20
23.9749
30
0
10
0
20
23.9937
30
0
10
0
20
24
30
0
0
SECTION
2
ENTITIES
0
SPLINE
70
0
71
1
72
17
73
15
74
0
40
0
40
0
40
0.224399
40
0.448799
40
0.673198
40
0.897598
40
1.122
40
1.3464
40
1.5708
40
1.7952
40
2.0196
40
2.24399
40
2.46839
40
2.69279
40
2.91719
40
3.14159
40
3.14159
10
0
20
36
30
0
10
0
20
35.8496
30
0
10
0
20
35.4058
30
0
10
0
20
34.691
30
0
10
0
20
33.7409
30
0
10
0
20
32.6033
30
0
10
0
20
31.3351
30
0
10
0
20
30
30
0
10
0
20
28.6649
30
0
10
0
20
27.3967
30
0
10
0
20
26.2591
30
0
10
0
20
25.309
30
0
10
0
20
24.5942
30
0
10
0
20
24.1504
30
0
10
0
20
24
30
0
0
SECTION
2
ENTITIES
0
SPLINE
70
0
71
1
72
17
73
15
74
0
40
1.5708
40
1.5708
40
1.683
40
1.7952
40
1.9074
40
2.0196
40
2.1318
40
2.24399
40
2.35619
40
2.46839
40
2.58059
40
2.69279
40
2.80499
40
2.91719
40
3.02939
40
3.14159
40
3.14159
10
0
20
36
30
0
10
0
20
36.0063
30
0
10
0
20
36.0251
30
0
10
0
20
36.0561
30
0
10
0
20
36.099
30
0
10
0
20
36.1533
30
0
10
0
20
36.2182
30
0
10
0
20
36.2929
30
0
10
0
20
36.3765
30
0
10
0
20
36.468
30
0
10
0
20
36.5661
30
0
10
0
20
36.6697
30
0
10
0
20
36.7775
30
0
10
0
20
36.888
30
0
10
0
20
37
30
0
0
LINE
8
0
6
BYBLOCK
62
0
10
0
20
37
30
0
11
0
21
69
31
0
0
SECTION
2
ENTITIES
0
SPLINE
70
0
71
1
72
17
73
15
74
0
40
0
40
0
40
0.1122
40
0.224399
40
0.336599
40
0.448799
40
0.560999
40
0.673198
40
0.785398
40
0.897598
40
1.0098
40
1.122
40
1.2342
40
1.3464
40
1.4586
40
1.5708
40
1.5708
10
0
20
69
30
0
10
0
20
69.112
30
0
10
0
20
69.2225
30
0
10
0
20
69.3303
30
0
10
0
20
69.4339
30
0
10
0
20
69.532
30
0
10
0
20
69.6235
30
0
10
0
20
69.7071
30
0
10
0
20
69.7818
30
0
10
0
20
69.8467
30
0
10
0
20
69.901
30
0
10
0
20
69.9439
30
0
10
0
20
69.9749
30
0
10
0
20
69.9937
30
0
10
0
20
70
30
0
0
LINE
8
0
6
BYBLOCK
62
0
10
0
20
-2.22045e-16
30
0
11
-5
21
-2.22045e-16
31
0
0
SECTION
2
ENTITIES
0
SPLINE
70
0
71
1
72
17
73
15
74
0
40
0
40
0
40
0.1122
40
0.224399
40
0.336599
40
0.448799
40
0.560999
40
0.673198
40
0.785398
40
0.897598
40
1.0098
40
1.122
40
1.2342
40
1.3464
40
1.4586
40
1.5708
40
1.5708
10
-5
20
1
30
0
10
-5
20
0.888036
30
0
10
-5
20
0.777479
30
0
10
-5
20
0.669721
30
0
10
-5
20
0.566116
30
0
10
-5
20
0.467968
30
0
10
-5
20
0.37651
30
0
10
-5
20
0.292893
30
0
10
-5
20
0.218169
30
0
10
-5
20
0.153276
30
0
10
-5
20
0.0990311
30
0
10
-5
20
0.0561167
30
0
10
-5
20
0.0250721
30
0
10
-5
20
0.00628779
30
0
10
-5
20
-2.22045e-16
30
0
0
SECTION
2
ENTITIES
0
SPLINE
70
0
71
1
72
17
73
15
74
0
40
3.14159
40
3.14159
40
3.25379
40
3.36599
40
3.47819
40
3.59039
40
3.70259
40
3.81479
40
3.92699
40
4.03919
40
4.15139
40
4.26359
40
4.37579
40
4.48799
40
4.60019
40
4.71239
40
4.71239
10
-4.5
20
23
30
0
10
-4.5
20
23.112
30
0
10
-4.5
20
23.2225
30
0
10
-4.5
20
23.3303
30
0
10
-4.5
20
23.4339
30
0
10
-4.5
20
23.532
30
0
10
-4.5
20
23.6235
30
0
10
-4.5
20
23.7071
30
0
10
-4.5
20
23.7818
30
0
10
-4.5
20
23.8467
30
0
10
-4.5
20
23.901
30
0
10
-4.5
20
23.9439
30
0
10
-4.5
20
23.9749
30
0
10
-4.5
20
23.9937
30
0
10
-4.5
20
24
30
0
0
LINE
8
0
6
BYBLOCK
62
0
10
-4.5
20
24
30
0
11
0
21
24
31
0
0
SECTION
2
ENTITIES
0
SPLINE
70
0
71
1
72
17
73
15
74
0
40
-1.03029e-13
40
-1.03029e-13
40
0.224399
40
0.448799
40
0.673198
40
0.897598
40
1.122
40
1.3464
40
1.5708
40
1.7952
40
2.0196
40
2.24399
40
2.46839
40
2.69279
40
2.91719
40
3.14159
40
3.14159
10
-5
20
38.9
30
0
10
-5
20
38.6769
30
0
10
-5
20
38.0186
30
0
10
-5
20
36.9583
30
0
10
-5
20
35.5491
30
0
10
-5
20
33.8616
30
0
10
-5
20
31.9804
30
0
10
-5
20
30
30
0
10
-5
20
28.0196
30
0
10
-5
20
26.1384
30
0
10
-5
20
24.4509
30
0
10
-5
20
23.0417
30
0
10
-5
20
21.9814
30
0
10
-5
20
21.3231
30
0
10
-5
20
21.1
30
0
0
LINE
8
0
6
BYBLOCK
62
0
10
-5
20
38.9
30
0
11
-5
21
69
31
0
0
SECTION
2
ENTITIES
0
SPLINE
70
0
71
1
72
17
73
15
74
0
40
0
40
0
40
0.1122
40
0.224399
40
0.336599
40
0.448799
40
0.560999
40
0.673198
40
0.785398
40
0.897598
40
1.0098
40
1.122
40
1.2342
40
1.3464
40
1.4586
40
1.5708
40
1.5708
10
-5
20
69
30
0
10
-5
20
69.112
30
0
10
-5
20
69.2225
30
0
10
-5
20
69.3303
30
0
10
-5
20
69.4339
30
0
10
-5
20
69.532
30
0
10
-5
20
69.6235
30
0
10
-5
20
69.7071
30
0
10
-5
20
69.7818
30
0
10
-5
20
69.8467
30
0
10
-5
20
69.901
30
0
10
-5
20
69.9439
30
0
10
-5
20
69.9749
30
0
10
-5
20
69.9937
30
0
10
-5
20
70
30
0
0
SECTION
2
ENTITIES
0
SPLINE
70
0
71
1
72
17
73
15
74
0
40
0.665648
40
0.665648
40
0.783146
40
0.900644
40
1.01814
40
1.13564
40
1.25314
40
1.37064
40
1.48813
40
1.60563
40
1.72313
40
1.84063
40
1.95813
40
2.07562
40
2.19312
40
2.31062
40
2.31062
10
-4.5
20
37
30
0
10
-4.5
20
36.3074
30
0
10
-4.5
20
35.5278
30
0
10
-4.5
20
34.672
30
0
10
-4.5
20
33.7518
30
0
10
-4.5
20
32.7799
30
0
10
-4.5
20
31.7696
30
0
10
-4.5
20
30.7349
30
0
10
-4.5
20
29.69
30
0
10
-4.5
20
28.6495
30
0
10
-4.5
20
27.6275
30
0
10
-4.5
20
26.6383
30
0
10
-4.5
20
25.6955
30
0
10
-4.5
20
24.812
30
0
10
-4.5
20
24
30
0
0
SECTION
2
ENTITIES
0
SPLINE
70
0
71
1
72
17
73
15
74
0
40
0
40
0
40
0.224399
40
0.448799
40
0.673198
40
0.897598
40
1.122
40
1.3464
40
1.5708
40
1.7952
40
2.0196
40
2.24399
40
2.46839
40
2.69279
40
2.91719
40
3.14159
40
3.14159
10
-4.5
20
36
30
0
10
-4.5
20
35.8496
30
0
10
-4.5
20
35.4058
30
0
10
-4.5
20
34.691
30
0
10
-4.5
20
33.7409
30
0
10
-4.5
20
32.6033
30
0
10
-4.5
20
31.3351
30
0
10
-4.5
20
30
30
0
10
-4.5
20
28.6649
30
0
10
-4.5
20
27.3967
30
0
10
-4.5
20
26.2591
30
0
10
-4.5
20
25.309
30
0
10
-4.5
20
24.5942
30
0
10
-4.5
20
24.1504
30
0
10
-4.5
20
24
30
0
0
LINE
8
0
6
BYBLOCK
62
0
10
-4.5
20
38.9
30
0
11
-4.5
21
37
31
0
0
SECTION
2
ENTITIES
0
SPLINE
70
0
71
1
72
17
73
15
74
0
40
1.5708
40
1.5708
40
1.683
40
1.7952
40
1.9074
40
2.0196
40
2.1318
40
2.24399
40
2.35619
40
2.46839
40
2.58059
40
2.69279
40
2.80499
40
2.91719
40
3.02939
40
3.14159
40
3.14159
10
-4.5
20
36
30
0
10
-4.5
20
36.0063
30
0
10
-4.5
20
36.0251
30
0
10
-4.5
20
36.0561
30
0
10
-4.5
20
36.099
30
0
10
-4.5
20
36.1533
30
0
10
-4.5
20
36.2182
30
0
10
-4.5
20
36.2929
30
0
10
-4.5
20
36.3765
30
0
10
-4.5
20
36.468
30
0
10
-4.5
20
36.5661
30
0
10
-4.5
20
36.6697
30
0
10
-4.5
20
36.7775
30
0
10
-4.5
20
36.888
30
0
10
-4.5
20
37
30
0
0
LINE
8
0
6
BYBLOCK
62
0
10
-4.5
20
24
30
0
11
0
21
24
31
0
0
LINE
8
0
6
BYBLOCK
62
0
10
-4.5
20
36
30
0
11
0
21
36
31
0
0
LINE
8
0
6
BYBLOCK
62
0
10
-4.5
20
36
30
0
11
0
21
36
31
0
0
LINE
8
0
6
BYBLOCK
62
0
10
-5
20
38.9
30
0
11
-4.5
21
38.9
31
0
0
LINE
8
0
6
BYBLOCK
62
0
10
0
20
70
30
0
11
-5
21
70
31
0
0
LINE
8
0
6
BYBLOCK
62
0
10
-5
20
38.9
30
0
11
-4.5
21
38.9
31
0
0
ENDBLK
8
0
0
ENDSEC
0
SECTION
2
ENTITIES
0
LINE
5
49
100
AcDbEntity
8
PAPERSIZE
6
ByLayer
62
256
370
-1
100
AcDbLine
10
0
20
0
11
5
21
0
0
LINE
5
4A
100
AcDbEntity
8
PAPERSIZE
6
ByLayer
62
256
370
-1
100
AcDbLine
10
0
20
0
11
0
21
-5
0
LINE
5
4B
100
AcDbEntity
8
PAPERSIZE
6
ByLayer
62
256
370
-1
100
AcDbLine
10
297
20
0
11
292
21
0
0
LINE
5
4C
100
AcDbEntity
8
PAPERSIZE
6
ByLayer
62
256
370
-1
100
AcDbLine
10
297
20
0
11
297
21
-5
0
LINE
5
4D
100
AcDbEntity
8
PAPERSIZE
6
ByLayer
62
256
370
-1
100
AcDbLine
10
0
20
-210
11
0
21
-205
0
LINE
5
4E
100
AcDbEntity
8
PAPERSIZE
6
ByLayer
62
256
370
-1
100
AcDbLine
10
0
20
-210
11
5
21
-210
0
LINE
5
4F
100
AcDbEntity
8
PAPERSIZE
6
ByLayer
62
256
370
-1
100
AcDbLine
10
297
20
-210
11
292
21
-210
0
LINE
5
50
100
AcDbEntity
8
PAPERSIZE
6
ByLayer
62
256
370
-1
100
AcDbLine
10
297
20
-210
11
297
21
-205
0
LINE
5
51
100
AcDbEntity
8
LOGO
6
ByLayer
62
5
370
-1
100
AcDbLine
10
284.386
20
-189.1792
11
282.6667
21
-190.16565
0
LINE
5
52
100
AcDbEntity
8
LOGO
6
ByLayer
62
5
370
-1
100
AcDbLine
10
282.6667
20
-190.16565
11
281.90745
21
-189.90217
0
LINE
5
53
100
AcDbEntity
8
LOGO
6
ByLayer
62
5
370
-1
100
AcDbLine
10
281.90745
20
-189.90217
11
281.18306
21
-188.05087
0
LINE
5
54
100
AcDbEntity
8
LOGO
6
ByLayer
62
5
370
-1
100
AcDbLine
10
281.18306
20
-188.05087
11
280.04356
21
-188.11075
0
LINE
5
55
100
AcDbEntity
8
LOGO
6
ByLayer
62
5
370
-1
100
AcDbLine
10
280.04356
20
-188.11075
11
279.5238
21
-190.02515
0
LINE
5
56
100
AcDbEntity
8
LOGO
6
ByLayer
62
5
370
-1
100
AcDbLine
10
279.5238
20
-190.02515
11
278.79637
21
-190.3735
0
LINE
5
57
100
AcDbEntity
8
LOGO
6
ByLayer
62
5
370
-1
100
AcDbLine
10
278.79637
20
-190.3735
11
276.98207
21
-189.57983
0
LINE
5
58
100
AcDbEntity
8
LOGO
6
ByLayer
62
5
370
-1
100
AcDbLine
10
276.98207
20
-189.57983
11
276.21575
21
-190.43139
0
LINE
5
59
100
AcDbEntity
8
LOGO
6
ByLayer
62
5
370
-1
100
AcDbLine
10
276.21575
20
-190.43139
11
277.2022
21
-192.15069
0
LINE
5
5A
100
AcDbEntity
8
LOGO
6
ByLayer
62
5
370
-1
100
AcDbLine
10
277.2022
20
-192.15069
11
276.93263
21
-192.90771
0
LINE
5
5B
100
AcDbEntity
8
LOGO
6
ByLayer
62
5
370
-1
100
AcDbLine
10
275.08133
20
-193.6321
11
275.147297
21
-194.7738
0
LINE
5
5C
100
AcDbEntity
8
LOGO
6
ByLayer
62
5
370
-1
100
AcDbLine
10
275.147297
20
-194.7738
11
277.061697
21
-195.29356
0
LINE
5
5D
100
AcDbEntity
8
LOGO
6
ByLayer
62
5
370
-1
100
AcDbLine
10
277.061697
20
-195.29356
11
277.410047
21
-196.02099
0
LINE
5
5E
100
AcDbEntity
8
LOGO
6
ByLayer
62
5
370
-1
100
AcDbLine
10
277.410047
20
-196.02099
11
276.610287
21
-197.83309
0
LINE
5
5F
100
AcDbEntity
8
LOGO
6
ByLayer
62
5
370
-1
100
AcDbLine
10
276.610287
20
-197.83309
11
277.461847
21
-198.59941
0
LINE
5
60
100
AcDbEntity
8
LOGO
6
ByLayer
62
5
370
-1
100
AcDbLine
10
277.461847
20
-198.59941
11
279.181147
21
-197.61296
0
LINE
5
61
100
AcDbEntity
8
LOGO
6
ByLayer
62
5
370
-1
100
AcDbLine
10
279.181147
20
-197.61296
11
279.944257
21
-197.88475
0
LINE
5
62
100
AcDbEntity
8
LOGO
6
ByLayer
62
5
370
-1
100
AcDbLine
10
279.944257
20
-197.88475
11
280.662557
21
-199.73385
0
LINE
5
63
100
AcDbEntity
8
LOGO
6
ByLayer
62
5
370
-1
100
AcDbLine
10
280.662557
20
-199.73385
11
281.810357
21
-199.6701
0
LINE
5
64
100
AcDbEntity
8
LOGO
6
ByLayer
62
5
370
-1
100
AcDbLine
10
281.810357
20
-199.6701
11
282.324027
21
-197.7535
0
LINE
5
65
100
AcDbEntity
8
LOGO
6
ByLayer
62
5
370
-1
100
AcDbLine
10
282.324027
20
-197.7535
11
283.051457
21
-197.40515
0
LINE
5
66
100
AcDbEntity
8
LOGO
6
ByLayer
62
5
370
-1
100
AcDbLine
10
283.051457
20
-197.40515
11
284.869657
21
-198.20713
0
LINE
5
67
100
AcDbEntity
8
LOGO
6
ByLayer
62
5
370
-1
100
AcDbLine
10
284.869657
20
-198.20713
11
285.635977
21
-197.35557
0
LINE
5
68
100
AcDbEntity
8
LOGO
6
ByLayer
62
5
370
-1
100
AcDbLine
10
285.635977
20
-197.35557
11
284.649527
21
-195.63627
0
LINE
5
69
100
AcDbEntity
8
LOGO
6
ByLayer
62
5
370
-1
100
AcDbLine
10
284.649527
20
-195.63627
11
284.915227
21
-194.87094
0
LINE
5
6A
100
AcDbEntity
8
LOGO
6
ByLayer
62
5
370
-1
100
AcDbLine
10
284.915227
20
-194.87094
11
286.764327
21
-194.15264
0
LINE
5
6B
100
AcDbEntity
8
LOGO
6
ByLayer
62
5
370
-1
100
AcDbLine
10
286.764327
20
-194.15264
11
286.706667
21
-193.00704
0
LINE
5
6C
100
AcDbEntity
8
LOGO
6
ByLayer
62
5
370
-1
100
AcDbLine
10
286.706667
20
-193.00704
11
284.790067
21
-192.49337
0
LINE
5
6D
100
AcDbEntity
8
LOGO
6
ByLayer
62
5
370
-1
100
AcDbLine
10
284.790067
20
-192.49337
11
284.441717
21
-191.76594
0
LINE
5
6E
100
AcDbEntity
8
LOGO
6
ByLayer
62
5
370
-1
100
AcDbLine
10
284.441717
20
-191.76594
11
285.237617
21
-189.94554
0
LINE
5
6F
100
AcDbEntity
8
LOGO
6
ByLayer
62
5
370
-1
100
AcDbLine
10
285.237617
20
-189.94554
11
284.386057
21
-189.17922
0
LINE
5
70
100
AcDbEntity
8
LOGO
6
ByLayer
62
5
370
-1
100
AcDbLine
10
284.386057
20
-189.17922
11
284.386
21
-189.1792
0
LINE
5
71
100
AcDbEntity
8
LOGO
6
ByLayer
62
5
370
-1
100
AcDbLine
10
281.8109
20
-191.9987
11
282.16385
21
-192.20348
0
LINE
5
72
100
AcDbEntity
8
LOGO
6
ByLayer
62
5
370
-1
100
AcDbLine
10
282.16385
20
-192.20348
11
282.46964
21
-192.48073
0
LINE
5
73
100
AcDbEntity
8
LOGO
6
ByLayer
62
5
370
-1
100
AcDbLine
10
282.46964
20
-192.48073
11
282.71445
21
-192.8116
0
LINE
5
74
100
AcDbEntity
8
LOGO
6
ByLayer
62
5
370
-1
100
AcDbLine
10
282.71445
20
-192.8116
11
282.89056
21
-193.17947
0
LINE
5
75
100
AcDbEntity
8
LOGO
6
ByLayer
62
5
370
-1
100
AcDbLine
10
282.89056
20
-193.17947
11
282.9941
21
-193.57603
0
LINE
5
76
100
AcDbEntity
8
LOGO
6
ByLayer
62
5
370
-1
100
AcDbLine
10
282.9941
20
-193.57603
11
283.01125
21
-193.98243
0
LINE
5
77
100
AcDbEntity
8
LOGO
6
ByLayer
62
5
370
-1
100
AcDbLine
10
283.01125
20
-193.98243
11
282.95255
21
-194.38873
0
LINE
5
78
100
AcDbEntity
8
LOGO
6
ByLayer
62
5
370
-1
100
AcDbLine
10
282.95255
20
-194.38873
11
282.81859
21
-194.77444
0
LINE
5
79
100
AcDbEntity
8
LOGO
6
ByLayer
62
5
370
-1
100
AcDbLine
10
282.81859
20
-194.77444
11
282.60549
21
-195.13125
0
LINE
5
7A
100
AcDbEntity
8
LOGO
6
ByLayer
62
5
370
-1
100
AcDbLine
10
282.60549
20
-195.13125
11
282.33655
21
-195.43317
0
LINE
5
7B
100
AcDbEntity
8
LOGO
6
ByLayer
62
5
370
-1
100
AcDbLine
10
282.33655
20
-195.43317
11
282.00568
21
-195.67798
0
LINE
5
7C
100
AcDbEntity
8
LOGO
6
ByLayer
62
5
370
-1
100
AcDbLine
10
282.00568
20
-195.67798
11
281.63781
21
-195.85409
0
LINE
5
7D
100
AcDbEntity
8
LOGO
6
ByLayer
62
5
370
-1
100
AcDbLine
10
281.63781
20
-195.85409
11
281.24125
21
-195.95763
0
LINE
5
7E
100
AcDbEntity
8
LOGO
6
ByLayer
62
5
370
-1
100
AcDbLine
10
281.24125
20
-195.95763
11
280.83262
21
-195.98088
0
LINE
5
7F
100
AcDbEntity
8
LOGO
6
ByLayer
62
5
370
-1
100
AcDbLine
10
280.83262
20
-195.98088
11
280.42632
21
-195.92218
0
LINE
5
80
100
AcDbEntity
8
LOGO
6
ByLayer
62
5
370
-1
100
AcDbLine
10
280.42632
20
-195.92218
11
280.04061
21
-195.78822
0
LINE
5
81
100
AcDbEntity
8
LOGO
6
ByLayer
62
5
370
-1
100
AcDbLine
10
280.04061
20
-195.78822
11
279.6838
21
-195.57512
0
LINE
5
82
100
AcDbEntity
8
LOGO
6
ByLayer
62
5
370
-1
100
AcDbLine
10
279.6838
20
-195.57512
11
279.3841
21
-195.30009
0
LINE
5
83
100
AcDbEntity
8
LOGO
6
ByLayer
62
5
370
-1
100
AcDbLine
10
279.3841
20
-195.30009
11
279.13707
21
-194.97531
0
LINE
5
84
100
AcDbEntity
8
LOGO
6
ByLayer
62
5
370
-1
100
AcDbLine
10
279.13707
20
-194.97531
11
278.96096
21
-194.60744
0
LINE
5
85
100
AcDbEntity
8
LOGO
6
ByLayer
62
5
370
-1
100
AcDbLine
10
278.96096
20
-194.60744
11
278.85964
21
-194.2048
0
LINE
5
86
100
AcDbEntity
8
LOGO
6
ByLayer
62
5
370
-1
100
AcDbLine
10
278.85964
20
-194.2048
11
278.8364
21
-193.79617
0
LINE
5
87
100
AcDbEntity
8
LOGO
6
ByLayer
62
5
370
-1
100
AcDbLine
10
278.8364
20
-193.79617
11
278.89509
21
-193.38987
0
LINE
5
88
100
AcDbEntity
8
LOGO
6
ByLayer
62
5
370
-1
100
AcDbLine
10
278.89509
20
-193.38987
11
279.02905
21
-193.00416
0
LINE
5
89
100
AcDbEntity
8
LOGO
6
ByLayer
62
5
370
-1
100
AcDbLine
10
279.02905
20
-193.00416
11
279.23992
21
-192.65344
0
LINE
5
8A
100
AcDbEntity
8
LOGO
6
ByLayer
62
5
370
-1
100
AcDbLine
10
279.23992
20
-192.65344
11
279.51108
21
-192.34543
0
LINE
5
8B
100
AcDbEntity
8
LOGO
6
ByLayer
62
5
370
-1
100
AcDbLine
10
279.51108
20
-192.34543
11
279.84195
21
-192.10062
0
LINE
5
8C
100
AcDbEntity
8
LOGO
6
ByLayer
62
5
370
-1
100
AcDbLine
10
279.84195
20
-192.10062
11
280.20982
21
-191.92451
0
LINE
5
8D
100
AcDbEntity
8
LOGO
6
ByLayer
62
5
370
-1
100
AcDbLine
10
280.20982
20
-191.92451
11
280.61246
21
-191.82319
0
LINE
5
8E
100
AcDbEntity
8
LOGO
6
ByLayer
62
5
370
-1
100
AcDbLine
10
280.61246
20
-191.82319
11
281.01887
21
-191.80604
0
LINE
5
8F
100
AcDbEntity
8
LOGO
6
ByLayer
62
5
370
-1
100
AcDbLine
10
281.01887
20
-191.80604
11
281.42517
21
-191.86473
0
LINE
5
90
100
AcDbEntity
8
LOGO
6
ByLayer
62
5
370
-1
100
AcDbLine
10
281.42517
20
-191.86473
11
281.81088
21
-191.99869
0
LINE
5
91
100
AcDbEntity
8
LOGO
6
ByLayer
62
5
370
-1
100
AcDbLine
10
281.81088
20
-191.99869
11
281.8109
21
-191.9987
0
LINE
5
92
100
AcDbEntity
8
LOGO
6
ByLayer
62
1
370
-1
100
AcDbLine
10
271.22811
20
-185.22835
11
271.22811
21
-198.48435
0
LINE
5
93
100
AcDbEntity
8
LOGO
6
ByLayer
62
1
370
-1
100
AcDbLine
10
271.22811
20
-198.48435
11
274.18391
21
-198.48435
0
LINE
5
94
100
AcDbEntity
8
LOGO
6
ByLayer
62
1
370
-1
100
AcDbLine
10
274.18391
20
-198.48435
11
274.18391
21
-193.29675
0
LINE
5
95
100
AcDbEntity
8
LOGO
6
ByLayer
62
1
370
-1
100
AcDbLine
10
274.18391
20
-193.29675
11
276.27391
21
-193.29675
0
LINE
5
96
100
AcDbEntity
8
LOGO
6
ByLayer
62
1
370
-1
100
AcDbLine
10
276.27391
20
-193.29675
11
276.27391
21
-191.25155
0
LINE
5
97
100
AcDbEntity
8
LOGO
6
ByLayer
62
1
370
-1
100
AcDbLine
10
276.27391
20
-191.25155
11
274.18391
21
-191.25155
0
LINE
5
98
100
AcDbEntity
8
LOGO
6
ByLayer
62
1
370
-1
100
AcDbLine
10
274.18391
20
-191.25155
11
274.18391
21
-189.04405
0
LINE
5
99
100
AcDbEntity
8
LOGO
6
ByLayer
62
1
370
-1
100
AcDbLine
10
274.18391
20
-189.04405
11
279.33251
21
-189.04405
0
LINE
5
9A
100
AcDbEntity
8
LOGO
6
ByLayer
62
1
370
-1
100
AcDbLine
10
279.33251
20
-189.04405
11
279.33251
21
-185.23535
0
LINE
5
9B
100
AcDbEntity
8
LOGO
6
ByLayer
62
1
370
-1
100
AcDbLine
10
279.33251
20
-185.23535
11
271.22811
21
-185.22785
0
LINE
5
9C
100
AcDbEntity
8
LOGO
6
ByLayer
62
1
370
-1
100
AcDbLine
10
271.22811
20
-185.22785
11
271.22811
21
-185.22835
0
LINE
5
9D
100
AcDbEntity
8
LOGO
6
ByLayer
62
5
370
-1
100
AcDbLine
10
276.933
20
-192.908
11
275.081
21
-193.632
0
INSERT
5
aaaa1
8
0
6
BYLAYER
62
256
2
Ortho
10
180.0
20
-160.0
30
0
41
1.5
42
1.5
43
1.5
50
90.0000026563
0
INSERT
5
aaaa2
8
0
6
BYLAYER
62
256
2
Ortho001
10
20.0
20
-40.0
30
0
41
1.5
42
1.5
43
1.5
50
-60.0000001518
0
INSERT
5
aaaa3
8
0
6
BYLAYER
62
256
2
Ortho002
10
180.0
20
-22.5
30
0
41
1.5
42
1.5
43
1.5
50
-90.0000026563
0
INSERT
5
aaaa4
8
0
6
BYLAYER
62
256
2
Ortho004
10
22.5
20
-160.0
30
0
41
1.5
42
1.5
43
1.5
50
-90.0000026563
0
ENDSEC
0
SECTION
2
OBJECTS
0
DICTIONARY
5
C
330
0
100
AcDbDictionary
281
1
3
ACAD_GROUP
350
D
0
DICTIONARY
5
D
330
C
100
AcDbDictionary
281
1
0
ENDSEC
0
EOF
