  0
SECTION
  2
HEADER
  9
$ACADVER
  1
AC1009
  9
$INSBASE
 10
0.0
 20
0.0
 30
0.0
  9
$EXTMIN
 10
-25.996146542850571
 20
-36.871982640185252
 30
0.0
  9
$EXTMAX
 10
88.557570000878513
 20
25.92801940321888
 30
0.0
  9
$LIMMIN
 10
0.0
 20
0.0
  9
$LIMMAX
 10
420.0
 20
297.0
  9
$ORTHOMODE
 70
     0
  9
$REGENMODE
 70
     1
  9
$FILLMODE
 70
     1
  9
$QTEXTMODE
 70
     0
  9
$MIRRTEXT
 70
     0
  9
$DRAGMODE
 70
     2
  9
$LTSCALE
 40
1.0
  9
$OSMODE
 70
  2109
  9
$ATTMODE
 70
     1
  9
$TEXTSIZE
 40
3.0
  9
$TRACEWID
 40
1.0
  9
$TEXTSTYLE
  7
STANDARD
  9
$CLAYER
  8
0
  9
$CELTYPE
  6
CONTINUOUS
  9
$CECOLOR
 62
     7
  9
$DIMSCALE
 40
1.0
  9
$DIMASZ
 40
2.5
  9
$DIMEXO
 40
0.625
  9
$DIMDLI
 40
3.75
  9
$DIMRND
 40
0.0
  9
$DIMDLE
 40
0.0
  9
$DIMEXE
 40
1.25
  9
$DIMTP
 40
0.0
  9
$DIMTM
 40
0.0
  9
$DIMTXT
 40
2.5
  9
$DIMCEN
 40
2.5
  9
$DIMTSZ
 40
0.0
  9
$DIMTOL
 70
     0
  9
$DIMLIM
 70
     0
  9
$DIMTIH
 70
     0
  9
$DIMTOH
 70
     0
  9
$DIMSE1
 70
     0
  9
$DIMSE2
 70
     0
  9
$DIMTAD
 70
     1
  9
$DIMZIN
 70
     8
  9
$DIMBLK
  1
OPEN30
  9
$DIMASO
 70
     1
  9
$DIMSHO
 70
     1
  9
$DIMPOST
  1

  9
$DIMAPOST
  1

  9
$DIMALT
 70
     0
  9
$DIMALTD
 70
     3
  9
$DIMALTF
 40
0.03937007874016
  9
$DIMLFAC
 40
1.0
  9
$DIMTOFL
 70
     1
  9
$DIMTVP
 40
0.0
  9
$DIMTIX
 70
     0
  9
$DIMSOXD
 70
     0
  9
$DIMSAH
 70
     0
  9
$DIMBLK1
  1

  9
$DIMBLK2
  1

  9
$DIMSTYLE
  2
MISUMI
  9
$DIMCLRD
 70
   137
  9
$DIMCLRE
 70
   137
  9
$DIMCLRT
 70
   137
  9
$DIMTFAC
 40
1.0
  9
$DIMGAP
 40
0.625
  9
$LUNITS
 70
     2
  9
$LUPREC
 70
     2
  9
$SKETCHINC
 40
1.0
  9
$FILLETRAD
 40
0.0
  9
$AUNITS
 70
     0
  9
$AUPREC
 70
     0
  9
$MENU
  1
.
  9
$ELEVATION
 40
0.0
  9
$PELEVATION
 40
0.0
  9
$THICKNESS
 40
0.0
  9
$LIMCHECK
 70
     0
  9
$BLIPMODE
 70
     0
  9
$CHAMFERA
 40
0.5
  9
$CHAMFERB
 40
0.5
  9
$SKPOLY
 70
     0
  9
$TDCREATE
 40
2455135.5720697111
  9
$TDUPDATE
 40
2455656.613125023
  9
$TDINDWG
 40
0.0714134722
  9
$TDUSRTIMER
 40
0.071413287
  9
$USRTIMER
 70
     1
  9
$ANGBASE
 50
0.0
  9
$ANGDIR
 70
     0
  9
$PDMODE
 70
    35
  9
$PDSIZE
 40
0.0
  9
$PLINEWID
 40
0.0
  9
$COORDS
 70
     1
  9
$SPLFRAME
 70
     0
  9
$SPLINETYPE
 70
     6
  9
$SPLINESEGS
 70
     8
  9
$ATTDIA
 70
     0
  9
$ATTREQ
 70
     1
  9
$HANDLING
 70
     1
  9
$HANDSEED
  5
1D67
  9
$SURFTAB1
 70
     6
  9
$SURFTAB2
 70
     6
  9
$SURFTYPE
 70
     6
  9
$SURFU
 70
     6
  9
$SURFV
 70
     6
  9
$UCSNAME
  2

  9
$UCSORG
 10
0.0
 20
0.0
 30
0.0
  9
$UCSXDIR
 10
1.0
 20
0.0
 30
0.0
  9
$UCSYDIR
 10
0.0
 20
1.0
 30
0.0
  9
$PUCSNAME
  2

  9
$PUCSORG
 10
0.0
 20
0.0
 30
0.0
  9
$PUCSXDIR
 10
1.0
 20
0.0
 30
0.0
  9
$PUCSYDIR
 10
0.0
 20
1.0
 30
0.0
  9
$USERI1
 70
     0
  9
$USERI2
 70
     0
  9
$USERI3
 70
     0
  9
$USERI4
 70
     0
  9
$USERI5
 70
     0
  9
$USERR1
 40
0.0
  9
$USERR2
 40
0.0
  9
$USERR3
 40
0.0
  9
$USERR4
 40
0.0
  9
$USERR5
 40
0.0
  9
$WORLDVIEW
 70
     1
  9
$SHADEDGE
 70
     3
  9
$SHADEDIF
 70
    70
  9
$TILEMODE
 70
     1
  9
$MAXACTVP
 70
    64
  9
$PLIMCHECK
 70
     0
  9
$PEXTMIN
 10
0.0
 20
0.0
 30
0.0
  9
$PEXTMAX
 10
0.0
 20
0.0
 30
0.0
  9
$PLIMMIN
 10
0.0
 20
0.0
  9
$PLIMMAX
 10
12.0
 20
9.0
  9
$UNITMODE
 70
     0
  9
$VISRETAIN
 70
     1
  9
$PLINEGEN
 70
     0
  9
$PSLTSCALE
 70
     1
  0
ENDSEC
  0
SECTION
  2
TABLES
  0
TABLE
  2
VPORT
 70
     1
  0
VPORT
  2
*ACTIVE
 70
     0
 10
0.0
 20
0.0
 11
1.0
 21
1.0
 12
31.508979031409009
 22
-9.3050934307826907
 13
0.0
 23
0.0
 14
10.0
 24
10.0
 15
10.0
 25
10.0
 16
0.0
 26
0.0
 36
1.0
 17
0.0
 27
0.0
 37
0.0
 40
159.37259133612631
 41
1.0918367346938771
 42
50.0
 43
0.0
 44
0.0
 50
0.0
 51
0.0
 71
     0
 72
  1000
 73
     1
 74
     3
 75
     0
 76
     0
 77
     0
 78
     0
  0
ENDTAB
  0
TABLE
  2
LTYPE
 70
     4
  0
LTYPE
  2
CONTINUOUS
 70
     0
  3
Solid line
 72
    65
 73
     0
 40
0.0
  0
LTYPE
  2
CENTER
 70
     0
  3
Center ____ _ ____ _ ____ _ ____ _ ____ _ ____
 72
    65
 73
     4
 40
50.799999999999997
 49
31.75
 49
-6.3499999999999988
 49
6.3499999999999988
 49
-6.3499999999999988
  0
LTYPE
  2
DASHED
 70
     0
  3
Dashed __ __ __ __ __ __ __ __ __ __ __ __ __ _
 72
    65
 73
     2
 40
19.050000000000001
 49
12.699999999999999
 49
-6.3499999999999988
  0
LTYPE
  2
PHANTOM
 70
     0
  3
Phantom ______  __  __  ______  __  __  ______
 72
    65
 73
     6
 40
63.5
 49
31.75
 49
-6.3499999999999988
 49
6.3499999999999988
 49
-6.3499999999999988
 49
6.3499999999999988
 49
-6.3499999999999988
  0
ENDTAB
  0
TABLE
  2
LAYER
 70
     3
  0
LAYER
  2
0
 70
     0
 62
     7
  6
CONTINUOUS
  0
LAYER
  2
CENTER
 70
     0
 62
     1
  6
CENTER
  0
LAYER
  2
DEFPOINTS
 70
     0
 62
     7
  6
CONTINUOUS
  0
ENDTAB
  0
TABLE
  2
STYLE
 70
     1
  0
STYLE
  2
STANDARD
 70
     0
 40
3.0
 41
1.0
 50
0.0
 71
     0
 42
3.0
  3
txt.shx
  4
bigfont.shx
  0
ENDTAB
  0
TABLE
  2
VIEW
 70
     0
  0
ENDTAB
  0
TABLE
  2
UCS
 70
     0
  0
ENDTAB
  0
TABLE
  2
APPID
 70
     8
  0
APPID
  2
ACAD
 70
     0
  0
APPID
  2
ACAD_MLEADERVER
 70
     0
  0
APPID
  2
ACAD_PSEXT
 70
     0
  0
APPID
  2
ACAD_DSTYLE_DIMRADIAL_EXTENSION
 70
     0
  0
APPID
  2
ACAD_EXEMPT_FROM_CAD_STANDARDS
 70
     0
  0
APPID
  2
GRADIENTCOLOR1ACI
 70
     0
  0
APPID
  2
GRADIENTCOLOR2ACI
 70
     0
  0
APPID
  2
ACAECLAYERSTANDARD
 70
     0
  0
ENDTAB
  0
TABLE
  2
DIMSTYLE
 70
     1
  0
DIMSTYLE
  2
MISUMI
 70
     0
  3

  4

  5
OPEN30
  6

  7

 40
1.0
 41
2.5
 42
0.625
 43
3.75
 44
1.25
 45
0.0
 46
0.0
 47
0.0
 48
0.0
140
2.5
141
2.5
142
0.0
143
0.03937007874016
144
1.0
145
0.0
146
1.0
147
0.625
 71
     0
 72
     0
 73
     0
 74
     0
 75
     0
 76
     0
 77
     1
 78
     8
170
     0
171
     3
172
     1
173
     0
174
     0
175
     0
176
   137
177
   137
178
   137
  0
ENDTAB
  0
ENDSEC
  0
SECTION
  2
BLOCKS
  0
BLOCK
  8
0
  2
$MODEL_SPACE
 70
     0
 10
0.0
 20
0.0
 30
0.0
  3
$MODEL_SPACE
  1

  0
ENDBLK
  5
21
  8
0
  0
BLOCK
 67
     1
  8
0
  2
$PAPER_SPACE
 70
     0
 10
0.0
 20
0.0
 30
0.0
  3
$PAPER_SPACE
  1

  0
ENDBLK
  5
53
 67
     1
  8
0
  0
BLOCK
  8
0
 62
     7
  2
_OPEN30
 70
     0
 10
0.0
 20
0.0
 30
0.0
  3
_OPEN30
  1

  0
LINE
  5
D7
  8
0
  6
BYBLOCK
 62
     0
 10
-1.0
 20
0.26794919
 30
0.0
 11
0.0
 21
0.0
 31
0.0
  0
LINE
  5
D8
  8
0
  6
BYBLOCK
 62
     0
 10
0.0
 20
0.0
 30
0.0
 11
-1.0
 21
-0.26794919
 31
0.0
  0
LINE
  5
D9
  8
0
  6
BYBLOCK
 62
     0
 10
0.0
 20
0.0
 30
0.0
 11
-1.0
 21
0.0
 31
0.0
  0
ENDBLK
  5
DB
  8
0
 62
     7
  0
BLOCK
  8
0
 62
     7
  2
*U12
 70
     1
 10
0.0
 20
0.0
 30
0.0
  3
*U12
  1

  0
TEXT
  5
1D60
  8
0
  6
CONTINUOUS
 62
     7
 10
-10.0
 20
-32.415745232692643
 30
0.0
 40
3.0
  1
NFS5-2020-50
  0
ENDBLK
  5
1D62
  8
0
 62
     7
  0
BLOCK
  8
0
 62
     7
  2
*U13
 70
     1
 10
0.0
 20
0.0
 30
0.0
  3
*U13
  1

  0
TEXT
  5
1D64
  8
0
  6
CONTINUOUS
 62
     7
 10
-10.0
 20
-36.871982640185252
 30
0.0
 40
3.0
  1
NFS5-2020
  0
ENDBLK
  5
1D66
  8
0
 62
     7
  0
ENDSEC
  0
SECTION
  2
ENTITIES
  0
LINE
  5
1966
  8
CENTER
  6
CENTER
 62
     1
 10
-0.0000000000000005
 20
11.999999999999851
 30
0.0
 11
0.0
 21
-11.99999999999992
 31
0.0
  0
LINE
  5
1967
  8
0
  6
CONTINUOUS
 62
     7
 10
7.060653999999829
 20
6.0000029999999711
 30
0.0
 11
4.0000000000000142
 21
2.9393401000000661
 31
0.0
  0
LINE
  5
1968
  8
0
  6
CONTINUOUS
 62
     7
 10
7.9999999999999281
 20
5.9999999999999707
 30
0.0
 11
7.9999999999999281
 21
3.2999999999999678
 31
0.0
  0
LINE
  5
1969
  8
0
  6
CONTINUOUS
 62
     7
 10
5.9999999999999432
 20
7.0606689999998258
 30
0.0
 11
2.9393307999999641
 21
3.9999999999999711
 31
0.0
  0
LINE
  5
196A
  8
0
  6
CONTINUOUS
 62
     7
 10
-7.9999999999999849
 20
5.9999999999999707
 30
0.0
 11
-7.9999999999999849
 21
3.2999999999999678
 31
0.0
  0
LINE
  5
196B
  8
0
  6
CONTINUOUS
 62
     7
 10
-7.0606800000000041
 20
6.0000029999999711
 30
0.0
 11
-4.0000000000000142
 21
2.9393296500225921
 31
0.0
  0
LINE
  5
196C
  8
0
  6
CONTINUOUS
 62
     7
 10
-5.9999999999999574
 20
7.0606434999998271
 30
0.0
 11
-2.9393565499999852
 21
3.9999999999999711
 31
0.0
  0
LINE
  5
196D
  8
0
  6
CONTINUOUS
 62
     7
 10
9.9999999999998295
 20
8.9999999999999716
 30
0.0
 11
9.9999999999998295
 21
3.2999999500001129
 31
0.0
  0
LINE
  5
196E
  8
0
  6
CONTINUOUS
 62
     7
 10
-10.0
 20
8.9999999999999716
 30
0.0
 11
-10.0
 21
3.2999999500001129
 31
0.0
  0
LINE
  5
196F
  8
0
  6
CONTINUOUS
 62
     7
 10
7.060653499999872
 20
-6.0000100000000032
 30
0.0
 11
4.0000000000000142
 21
-2.9393481999999622
 31
0.0
  0
LINE
  5
1970
  8
0
  6
CONTINUOUS
 62
     7
 10
3.2999999500000419
 20
-9.9999999999999218
 30
0.0
 11
8.9999999999998721
 21
-9.9999999999999218
 31
0.0
  0
LINE
  5
1971
  8
0
  6
CONTINUOUS
 62
     7
 10
-7.0606684999999771
 20
-5.9999989999999244
 30
0.0
 11
-3.9999999999999569
 21
-2.9393372499999231
 31
0.0
  0
LINE
  5
1972
  8
0
  6
CONTINUOUS
 62
     7
 10
-5.9999999999999574
 20
-7.9999999999999067
 30
0.0
 11
-3.2999999999999678
 21
-7.999999999999921
 31
0.0
  0
LINE
  5
1973
  8
0
  6
CONTINUOUS
 62
     7
 10
-6.0000079999999514
 20
-7.0606594999999706
 30
0.0
 11
-2.9393488999997142
 21
-4.0000000000000284
 31
0.0
  0
LINE
  5
1974
  8
0
  6
CONTINUOUS
 62
     7
 10
-8.9999999999999574
 20
-9.9999999999999218
 30
0.0
 11
-3.299999949999957
 21
-9.9999999999999218
 31
0.0
  0
ARC
  5
1975
  8
0
  6
CONTINUOUS
 62
     7
 10
-9.6999999999999602
 20
-3.2999999499999499
 30
0.0
 40
0.30000001
 50
90.000003000000945
 51
180.000010000001
  0
LINE
  5
1976
  8
0
  6
CONTINUOUS
 62
     7
 10
-7.9999999999999849
 20
-5.999999999999921
 30
0.0
 11
-8.0
 21
-3.2999999999999261
 31
0.0
  0
LINE
  5
1977
  8
0
  6
CONTINUOUS
 62
     7
 10
-5.9999999999999574
 20
-7.0606604999999609
 30
0.0
 11
-5.9999999999999574
 21
-7.9999999999999067
 31
0.0
  0
LINE
  5
1978
  8
0
  6
CONTINUOUS
 62
     7
 10
-10.0
 20
-3.2999999499999499
 30
0.0
 11
-10.0
 21
-8.9999999999999361
 31
0.0
  0
ARC
  5
1979
  8
0
  6
CONTINUOUS
 62
     7
 10
-8.9999999999999574
 20
-8.9999999999999361
 30
0.0
 40
1.0
 50
180.0
 51
270.0
  0
LINE
  5
197A
  8
0
  6
CONTINUOUS
 62
     7
 10
-7.5749999874999503
 20
-9.9999999999999218
 30
0.0
 11
-7.5749999874999503
 21
-9.9998999999999327
 31
0.0
  0
LINE
  5
197B
  8
0
  6
CONTINUOUS
 62
     7
 10
-6.1499999749998997
 20
-9.9999999999999218
 30
0.0
 11
-6.1498999749999541
 21
-9.9999999999999218
 31
0.0
  0
LINE
  5
197C
  8
0
  6
CONTINUOUS
 62
     7
 10
-7.9999999999999849
 20
-5.999999999999921
 30
0.0
 11
-7.0606689999999901
 21
-5.999999999999921
 31
0.0
  0
LINE
  5
197D
  8
0
  6
CONTINUOUS
 62
     7
 10
-9.6999999999999602
 20
-2.9999999999999072
 30
0.0
 11
-8.2999999999999972
 21
-2.9999999999999072
 31
0.0
  0
ARC
  5
197E
  8
0
  6
CONTINUOUS
 62
     7
 10
-8.2999999999999972
 20
-3.2999999999999261
 30
0.0
 40
0.3
 50
0.0
 51
90.0
  0
LINE
  5
197F
  8
0
  6
CONTINUOUS
 62
     7
 10
-9.6999999999999602
 20
2.9999999999999711
 30
0.0
 11
-8.2999999999999687
 21
2.9999999999999711
 31
0.0
  0
ARC
  5
1980
  8
0
  6
CONTINUOUS
 62
     7
 10
-8.2999999999999687
 20
3.2999999999999678
 30
0.0
 40
0.3
 50
270.0
 51
0.0
  0
ARC
  5
1981
  8
0
  6
CONTINUOUS
 62
     7
 10
-9.6999999999999602
 20
3.2999999500001129
 30
0.0
 40
0.30000001
 50
179.999989999999
 51
270.0
  0
ARC
  5
1982
  8
0
  6
CONTINUOUS
 62
     7
 10
-3.299999949999957
 20
-9.6999999999999602
 30
0.0
 40
0.30000001
 50
270.0
 51
0.0
  0
LINE
  5
1983
  8
0
  6
CONTINUOUS
 62
     7
 10
-2.9999999999999849
 20
-9.6999999999999602
 30
0.0
 11
-2.9999999999999849
 21
-8.2999999999999332
 31
0.0
  0
ARC
  5
1984
  8
0
  6
CONTINUOUS
 62
     7
 10
-3.2999999999999678
 20
-8.2999999999999332
 30
0.0
 40
0.3
 50
0.0
 51
90.0
  0
LINE
  5
1985
  8
0
  6
CONTINUOUS
 62
     7
 10
5.9999999999999432
 20
-7.060656499999971
 30
0.0
 11
5.9999999999999432
 21
-7.9999999999999067
 31
0.0
  0
LINE
  5
1986
  8
0
  6
CONTINUOUS
 62
     7
 10
5.9999999999999432
 20
-7.9999999999999067
 30
0.0
 11
3.3000000000000109
 21
-7.9999999999999067
 31
0.0
  0
ARC
  5
1987
  8
0
  6
CONTINUOUS
 62
     7
 10
3.2999999500000419
 20
-9.6999999999999602
 30
0.0
 40
0.30000001
 50
179.999989999999
 51
270.0
  0
LINE
  5
1988
  8
0
  6
CONTINUOUS
 62
     7
 10
3.0
 20
-9.6999999999999602
 30
0.0
 11
3.0
 21
-8.2999999999999261
 31
0.0
  0
ARC
  5
1989
  8
0
  6
CONTINUOUS
 62
     7
 10
3.3000000000000109
 20
-8.2999999999999261
 30
0.0
 40
0.3
 50
90.0
 51
180.0
  0
LINE
  5
198A
  8
0
  6
CONTINUOUS
 62
     7
 10
5.9999824999998728
 20
-7.0606594999999706
 30
0.0
 11
2.939322699999209
 21
-4.0000000000000284
 31
0.0
  0
CIRCLE
  5
198B
  8
0
  6
CONTINUOUS
 62
     7
 10
0.0
 20
-0.0000000000000284
 30
0.0
 40
2.099999899999998
  0
ARC
  5
198C
  8
0
  6
CONTINUOUS
 62
     7
 10
9.6999999999998323
 20
-3.2999999499999499
 30
0.0
 40
0.30000001
 50
0.0
 51
90.000003000000945
  0
LINE
  5
198D
  8
0
  6
CONTINUOUS
 62
     7
 10
7.9999999999999281
 20
-5.999999999999921
 30
0.0
 11
7.9999999999999281
 21
-3.2999999999999261
 31
0.0
  0
LINE
  5
198E
  8
0
  6
CONTINUOUS
 62
     7
 10
9.9999999999998295
 20
-3.2999999499999499
 30
0.0
 11
9.9999999999998295
 21
-8.9999999999999361
 31
0.0
  0
ARC
  5
198F
  8
0
  6
CONTINUOUS
 62
     7
 10
8.9999999999998721
 20
-8.9999999999999361
 30
0.0
 40
1.0
 50
269.99999999999841
 51
0.0
  0
LINE
  5
1990
  8
0
  6
CONTINUOUS
 62
     7
 10
7.0606689999999039
 20
-5.999999999999921
 30
0.0
 11
7.9999999999999281
 21
-5.999999999999921
 31
0.0
  0
LINE
  5
1991
  8
0
  6
CONTINUOUS
 62
     7
 10
9.6999999999998323
 20
-2.9999999999999072
 30
0.0
 11
8.2999999999999261
 21
-2.9999999999999072
 31
0.0
  0
ARC
  5
1992
  8
0
  6
CONTINUOUS
 62
     7
 10
8.2999999999999261
 20
-3.2999999999999261
 30
0.0
 40
0.3
 50
90.0
 51
180.0
  0
LINE
  5
1993
  8
0
  6
CONTINUOUS
 62
     7
 10
9.6999999999998323
 20
2.9999999999999711
 30
0.0
 11
8.2999999999999261
 21
2.9999999999999711
 31
0.0
  0
ARC
  5
1994
  8
0
  6
CONTINUOUS
 62
     7
 10
8.2999999999999261
 20
3.2999999999999678
 30
0.0
 40
0.3
 50
180.0
 51
270.0
  0
ARC
  5
1995
  8
0
  6
CONTINUOUS
 62
     7
 10
9.6999999999998323
 20
3.2999999500001129
 30
0.0
 40
0.30000001
 50
270.0
 51
0.0
  0
LINE
  5
1996
  8
0
  6
CONTINUOUS
 62
     7
 10
3.2999999500000419
 20
9.9999999999999716
 30
0.0
 11
8.9999999999998721
 21
9.9999999999999716
 31
0.0
  0
LINE
  5
1997
  8
0
  6
CONTINUOUS
 62
     7
 10
-8.9999999999999574
 20
9.9999999999999716
 30
0.0
 11
-3.2999999999999678
 21
9.9999999999998561
 31
0.0
  0
ARC
  5
1998
  8
0
  6
CONTINUOUS
 62
     7
 10
-3.2999999999999678
 20
9.6999999999999247
 30
0.0
 40
0.3
 50
0.0
 51
90.0
  0
LINE
  5
1999
  8
0
  6
CONTINUOUS
 62
     7
 10
-5.9999999999999574
 20
7.9999999999999707
 30
0.0
 11
-3.2999999999999541
 21
8.0000000000000782
 31
0.0
  0
ARC
  5
199A
  8
0
  6
CONTINUOUS
 62
     7
 10
-8.9999999999999574
 20
8.9999999999999716
 30
0.0
 40
1.0
 50
90.0
 51
180.0
  0
LINE
  5
199B
  8
0
  6
CONTINUOUS
 62
     7
 10
-7.9999999999999849
 20
5.9999999999999707
 30
0.0
 11
-7.0606689999999901
 21
5.9999999999999707
 31
0.0
  0
LINE
  5
199C
  8
0
  6
CONTINUOUS
 62
     7
 10
-5.9999999999999574
 20
7.9999999999999707
 30
0.0
 11
-5.9999999999999574
 21
7.0606434999998271
 31
0.0
  0
LINE
  5
199D
  8
0
  6
CONTINUOUS
 62
     7
 10
-2.9999999999999849
 20
9.6999999999999247
 30
0.0
 11
-2.9999999999999849
 21
8.3000000000000966
 31
0.0
  0
ARC
  5
199E
  8
0
  6
CONTINUOUS
 62
     7
 10
-3.2999999999999678
 20
8.3000000000000966
 30
0.0
 40
0.3
 50
270.0000000000025
 51
0.0
  0
LINE
  5
199F
  8
0
  6
CONTINUOUS
 62
     7
 10
3.0
 20
9.7000000000001307
 30
0.0
 11
3.0
 21
8.2999999999999687
 31
0.0
  0
LINE
  5
19A0
  8
0
  6
CONTINUOUS
 62
     7
 10
5.9999999999999432
 20
7.9999999999999707
 30
0.0
 11
3.2999999999999821
 21
7.9999999999999707
 31
0.0
  0
ARC
  5
19A1
  8
0
  6
CONTINUOUS
 62
     7
 10
3.2999999999999821
 20
8.2999999999999687
 30
0.0
 40
0.3
 50
180.0
 51
270.0
  0
LINE
  5
19A2
  8
0
  6
CONTINUOUS
 62
     7
 10
5.9999999999999432
 20
7.9999999999999707
 30
0.0
 11
5.9999999999999432
 21
7.0606689999998258
 31
0.0
  0
ARC
  5
19A3
  8
0
  6
CONTINUOUS
 62
     7
 10
3.2999999500000419
 20
9.7000000000001307
 30
0.0
 40
0.30000001
 50
90.000003000000945
 51
180.000010000001
  0
ARC
  5
19A4
  8
0
  6
CONTINUOUS
 62
     7
 10
8.9999999999998721
 20
8.9999999999999716
 30
0.0
 40
1.0
 50
0.0
 51
90.0
  0
LINE
  5
19A5
  8
0
  6
CONTINUOUS
 62
     7
 10
7.060653499999872
 20
5.9999999999999707
 30
0.0
 11
7.9999999999999281
 21
5.9999999999999707
 31
0.0
  0
LINE
  5
19A6
  8
0
  6
CONTINUOUS
 62
     7
 10
-4.0000000000000142
 20
2.9393296500225921
 30
0.0
 11
-3.9999999999999569
 21
0.6535900000000084
 31
0.0
  0
LINE
  5
19A7
  8
0
  6
CONTINUOUS
 62
     7
 10
4.0000000000000142
 20
2.9393401000000661
 30
0.0
 11
4.0000000000000417
 21
2.500000999999819
 31
0.0
  0
LINE
  5
19A8
  8
0
  6
CONTINUOUS
 62
     7
 10
-2.9393565499999852
 20
3.9999999999999711
 30
0.0
 11
-2.4999990000003001
 21
3.9999999999999711
 31
0.0
  0
LINE
  5
19A9
  8
0
  6
CONTINUOUS
 62
     7
 10
-2.9393488999997142
 20
-4.0000000000000284
 30
0.0
 11
-0.6535889999999683
 21
-4.0000000000000284
 31
0.0
  0
LINE
  5
19AA
  8
0
  6
CONTINUOUS
 62
     7
 10
0.6535899999999942
 20
3.9999999999999711
 30
0.0
 11
2.9393307999999641
 21
3.9999999999999711
 31
0.0
  0
LINE
  5
19AB
  8
0
  6
CONTINUOUS
 62
     7
 10
4.0000000000000417
 20
-0.6535890000000322
 30
0.0
 11
4.0000000000000142
 21
-2.9393481999999622
 31
0.0
  0
LINE
  5
19AC
  8
0
  6
CONTINUOUS
 62
     7
 10
2.5000010000000819
 20
-4.0000000000000284
 30
0.0
 11
2.939322699999209
 21
-4.0000000000000284
 31
0.0
  0
LINE
  5
19AD
  8
0
  6
CONTINUOUS
 62
     7
 10
-3.9999999999999569
 20
-2.5000009999997621
 30
0.0
 11
-3.9999999999999569
 21
-2.9393372499999231
 31
0.0
  0
LINE
  5
19B8
  8
CENTER
  6
CENTER
 62
     1
 10
-12.0
 20
0.0
 30
0.0
 11
12.00000000999983
 21
0.0000000000000003
 31
0.0
  0
LINE
  5
19BB
  8
0
  6
CONTINUOUS
 62
     7
 10
0.4035899999999942
 20
3.933012999999959
 30
0.0
 11
0.0
 21
3.6999999999999882
 31
0.0
  0
LINE
  5
19BC
  8
0
  6
CONTINUOUS
 62
     7
 10
0.0
 20
3.6999999999999882
 30
0.0
 11
-0.4035890000000109
 21
3.933012999999959
 31
0.0
  0
LINE
  5
19BD
  8
0
  6
CONTINUOUS
 62
     7
 10
-0.903588999999954
 20
3.933012999999959
 30
0.0
 11
-1.218885
 21
3.75097699999997
 31
0.0
  0
LINE
  5
19BE
  8
0
  6
CONTINUOUS
 62
     7
 10
-1.218885
 20
3.75097699999997
 30
0.0
 11
-2.4999990000003001
 21
3.9999999999999711
 31
0.0
  0
ARC
  5
19BF
  8
0
  6
CONTINUOUS
 62
     7
 10
-0.6535889999999541
 20
3.499999999999921
 30
0.0
 40
0.5
 50
60.000000000000071
 51
119.9999999999999
  0
ARC
  5
19C0
  8
0
  6
CONTINUOUS
 62
     7
 10
0.6535899999999942
 20
3.499999999999921
 30
0.0
 40
0.5
 50
90.0
 51
119.9999999999999
  0
LINE
  5
19C1
  8
0
  6
CONTINUOUS
 62
     7
 10
-3.9330119999999762
 20
-0.4035890000000109
 30
0.0
 11
-3.6999999999999602
 21
0.0
 31
0.0
  0
LINE
  5
19C2
  8
0
  6
CONTINUOUS
 62
     7
 10
-3.9999999999999569
 20
-2.5000009999997621
 30
0.0
 11
-3.750975999999937
 21
-1.2188859999999899
 31
0.0
  0
ARC
  5
19C3
  8
0
  6
CONTINUOUS
 62
     7
 10
-3.5000000000000142
 20
-0.6535890000000109
 30
0.0
 40
0.5
 50
149.9999999999992
 51
210.0000000000008
  0
LINE
  5
19C4
  8
0
  6
CONTINUOUS
 62
     7
 10
-3.750975999999937
 20
-1.2188859999999899
 30
0.0
 11
-3.9330119999999762
 21
-0.9035890000000107
 31
0.0
  0
LINE
  5
19C5
  8
0
  6
CONTINUOUS
 62
     7
 10
-3.9330119999999762
 20
0.4035900000000084
 30
0.0
 11
-3.6999999999999602
 21
0.0
 31
0.0
  0
ARC
  5
19C6
  8
0
  6
CONTINUOUS
 62
     7
 10
-3.5000000000000142
 20
0.6535900000000084
 30
0.0
 40
0.5
 50
180.0000000000008
 51
210.0000000000008
  0
LINE
  5
19C7
  8
0
  6
CONTINUOUS
 62
     7
 10
0.4035899999999942
 20
-3.9330129999999812
 30
0.0
 11
0.0
 21
-3.700000000000002
 31
0.0
  0
LINE
  5
19C8
  8
0
  6
CONTINUOUS
 62
     7
 10
0.0
 20
-3.700000000000002
 30
0.0
 11
-0.4035890000000109
 21
-3.9330129999999812
 31
0.0
  0
LINE
  5
19C9
  8
0
  6
CONTINUOUS
 62
     7
 10
2.5000010000000819
 20
-4.0000000000000284
 30
0.0
 11
1.218885999999997
 21
-3.7509759999999939
 31
0.0
  0
ARC
  5
19CA
  8
0
  6
CONTINUOUS
 62
     7
 10
-0.6535889999999541
 20
-3.500000000000028
 30
0.0
 40
0.5
 50
270.0
 51
299.99999999999989
  0
ARC
  5
19CB
  8
0
  6
CONTINUOUS
 62
     7
 10
0.6535899999999942
 20
-3.500000000000028
 30
0.0
 40
0.5
 50
240.00000000000011
 51
299.99999999999989
  0
LINE
  5
19CC
  8
0
  6
CONTINUOUS
 62
     7
 10
1.218885999999997
 20
-3.7509759999999939
 30
0.0
 11
0.9035900000000368
 21
-3.9330129999999812
 31
0.0
  0
LINE
  5
19CD
  8
0
  6
CONTINUOUS
 62
     7
 10
3.9330120000000188
 20
-0.4035890000000109
 30
0.0
 11
3.700000000000045
 21
0.0
 31
0.0
  0
ARC
  5
19CE
  8
0
  6
CONTINUOUS
 62
     7
 10
3.5000000000000422
 20
-0.6535890000000109
 30
0.0
 40
0.5
 50
359.9999999999992
 51
30.000000000000838
  0
LINE
  5
19CF
  8
0
  6
CONTINUOUS
 62
     7
 10
3.9330120000000188
 20
0.4035900000000084
 30
0.0
 11
3.700000000000045
 21
0.0
 31
0.0
  0
LINE
  5
19D0
  8
0
  6
CONTINUOUS
 62
     7
 10
4.0000000000000417
 20
2.500000999999819
 30
0.0
 11
3.7509760000000361
 21
1.218885999999997
 31
0.0
  0
ARC
  5
19D1
  8
0
  6
CONTINUOUS
 62
     7
 10
3.5000000000000422
 20
0.6535900000000084
 30
0.0
 40
0.5
 50
329.99999999999909
 51
30.000000000000838
  0
LINE
  5
19D2
  8
0
  6
CONTINUOUS
 62
     7
 10
3.7509760000000361
 20
1.218885999999997
 30
0.0
 11
3.9330120000000188
 21
0.9035900000000083
 31
0.0
  0
LINE
  5
19D9
  8
0
  6
CONTINUOUS
 62
     7
 10
36.557570000878513
 20
9.9999999999999716
 30
0.0
 11
86.557570000878499
 21
9.9999999999999716
 31
0.0
  0
LINE
  5
19DA
  8
0
  6
CONTINUOUS
 62
     7
 10
36.557570000878513
 20
2.9999999400001141
 30
0.0
 11
86.557570000878499
 21
2.9999999400001141
 31
0.0
  0
LINE
  5
19DB
  8
0
  6
CONTINUOUS
 62
     7
 10
36.557570000878513
 20
0.0
 30
0.0
 11
86.557570000878499
 21
0.0
 31
0.0
  0
LINE
  5
19DC
  8
0
  6
CONTINUOUS
 62
     7
 10
36.557570000878513
 20
1.218885999999997
 30
0.0
 11
86.557570000878499
 21
1.218885999999997
 31
0.0
  0
LINE
  5
19DD
  8
0
  6
CONTINUOUS
 62
     7
 10
36.557570000878513
 20
2.500000999999819
 30
0.0
 11
86.557570000878499
 21
2.500000999999819
 31
0.0
  0
LINE
  5
19DE
  8
0
  6
CONTINUOUS
 62
     7
 10
36.557570000878513
 20
-2.9999999999999072
 30
0.0
 11
86.557570000878499
 21
-2.9999999999999072
 31
0.0
  0
LINE
  5
19DF
  8
0
  6
CONTINUOUS
 62
     7
 10
36.557570000878513
 20
-9.9999999999999361
 30
0.0
 11
86.557570000878499
 21
-9.9999999999999361
 31
0.0
  0
LINE
  5
19E0
  8
0
  6
CONTINUOUS
 62
     7
 10
36.557570000878513
 20
9.9999999999999716
 30
0.0
 11
36.557570000878513
 21
-9.9999999999999361
 31
0.0
  0
LINE
  5
19E1
  8
0
  6
CONTINUOUS
 62
     7
 10
86.557570000878499
 20
9.9999999999999716
 30
0.0
 11
86.557570000878499
 21
-9.9999999999999361
 31
0.0
  0
LINE
  5
19E2
  8
CENTER
  6
CENTER
 62
     1
 10
34.55757000087852
 20
0.0
 30
0.0
 11
88.557570000878513
 21
0.0
 31
0.0
  0
INSERT
  5
19E4
  8
0
  6
CONTINUOUS
 62
     7
  2
*U12
 10
0.0
 20
0.0
 30
0.0
  0
INSERT
  5
19E5
  8
0
  6
CONTINUOUS
 62
     7
  2
*U13
 10
0.0
 20
0.0
 30
0.0
  0
ENDSEC
  0
EOF
